  0
SECTION
  2
HEADER
  9
$ACADVER
  1
AC1009
  9
$INSBASE
 10
0.0
 20
0.0
 30
0.0
  9
$EXTMIN
 10
19.992676689281101
 20
4.7625745050174819
 30
-0.0015258207003583
  9
$EXTMAX
 10
380.01159756445759
 20
540.0164807494923
 30
0.0000000349246037
  9
$LIMMIN
 10
0.0
 20
0.0
  9
$LIMMAX
 10
0.0
 20
0.0
  9
$ORTHOMODE
 70
     0
  9
$REGENMODE
 70
     1
  9
$FILLMODE
 70
     1
  9
$QTEXTMODE
 70
     0
  9
$MIRRTEXT
 70
     1
  9
$DRAGMODE
 70
     2
  9
$LTSCALE
 40
10.16
  9
$OSMODE
 70
   231
  9
$ATTMODE
 70
     1
  9
$TEXTSIZE
 40
0.0
  9
$TRACEWID
 40
1.0
  9
$TEXTSTYLE
  7
STANDARD
  9
$CLAYER
  8
DATA
  9
$CELTYPE
  6
BYLAYER
  9
$CECOLOR
 62
   256
  9
$DIMSCALE
 40
1.0
  9
$DIMASZ
 40
0.18
  9
$DIMEXO
 40
0.0625
  9
$DIMDLI
 40
0.38
  9
$DIMRND
 40
0.0
  9
$DIMDLE
 40
0.0
  9
$DIMEXE
 40
0.18
  9
$DIMTP
 40
0.0
  9
$DIMTM
 40
0.0
  9
$DIMTXT
 40
0.18
  9
$DIMCEN
 40
0.09
  9
$DIMTSZ
 40
0.0
  9
$DIMTOL
 70
     0
  9
$DIMLIM
 70
     0
  9
$DIMTIH
 70
     1
  9
$DIMTOH
 70
     1
  9
$DIMSE1
 70
     0
  9
$DIMSE2
 70
     0
  9
$DIMTAD
 70
     0
  9
$DIMZIN
 70
     0
  9
$DIMBLK
  1

  9
$DIMASO
 70
     1
  9
$DIMSHO
 70
     1
  9
$DIMPOST
  1

  9
$DIMAPOST
  1

  9
$DIMALT
 70
     0
  9
$DIMALTD
 70
     2
  9
$DIMALTF
 40
25.399999999999999
  9
$DIMLFAC
 40
1.0
  9
$DIMTOFL
 70
     0
  9
$DIMTVP
 40
0.0
  9
$DIMTIX
 70
     0
  9
$DIMSOXD
 70
     0
  9
$DIMSAH
 70
     0
  9
$DIMBLK1
  1

  9
$DIMBLK2
  1

  9
$DIMSTYLE
  2
STANDARD
  9
$DIMCLRD
 70
     0
  9
$DIMCLRE
 70
     0
  9
$DIMCLRT
 70
     0
  9
$DIMTFAC
 40
1.0
  9
$DIMGAP
 40
0.09
  9
$LUNITS
 70
     2
  9
$LUPREC
 70
     4
  9
$SKETCHINC
 40
0.1
  9
$FILLETRAD
 40
0.0
  9
$AUNITS
 70
     0
  9
$AUPREC
 70
     0
  9
$MENU
  1
acad
  9
$ELEVATION
 40
0.0
  9
$PELEVATION
 40
0.0
  9
$THICKNESS
 40
0.0
  9
$LIMCHECK
 70
     0
  9
$BLIPMODE
 70
     0
  9
$CHAMFERA
 40
0.0
  9
$CHAMFERB
 40
0.0
  9
$SKPOLY
 70
     0
  9
$TDCREATE
 40
2456889.5073958328
  9
$TDUPDATE
 40
2456889.5089421649
  9
$TDINDWG
 40
0.0003831597
  9
$TDUSRTIMER
 40
0.0003829977
  9
$USRTIMER
 70
     1
  9
$ANGBASE
 50
0.0
  9
$ANGDIR
 70
     0
  9
$PDMODE
 70
     1
  9
$PDSIZE
 40
-2.0
  9
$PLINEWID
 40
0.0
  9
$COORDS
 70
     2
  9
$SPLFRAME
 70
     0
  9
$SPLINETYPE
 70
     6
  9
$SPLINESEGS
 70
     8
  9
$ATTDIA
 70
     0
  9
$ATTREQ
 70
     1
  9
$HANDLING
 70
     1
  9
$HANDSEED
  5
691
  9
$SURFTAB1
 70
     6
  9
$SURFTAB2
 70
     6
  9
$SURFTYPE
 70
     6
  9
$SURFU
 70
     6
  9
$SURFV
 70
     6
  9
$UCSNAME
  2

  9
$UCSORG
 10
0.0
 20
0.0
 30
0.0
  9
$UCSXDIR
 10
1.0
 20
0.0
 30
0.0
  9
$UCSYDIR
 10
0.0
 20
1.0
 30
0.0
  9
$PUCSNAME
  2

  9
$PUCSORG
 10
0.0
 20
0.0
 30
0.0
  9
$PUCSXDIR
 10
1.0
 20
0.0
 30
0.0
  9
$PUCSYDIR
 10
0.0
 20
1.0
 30
0.0
  9
$USERI1
 70
     0
  9
$USERI2
 70
     0
  9
$USERI3
 70
     0
  9
$USERI4
 70
     0
  9
$USERI5
 70
     0
  9
$USERR1
 40
0.0
  9
$USERR2
 40
0.0
  9
$USERR3
 40
0.0
  9
$USERR4
 40
0.0
  9
$USERR5
 40
0.0
  9
$WORLDVIEW
 70
     1
  9
$SHADEDGE
 70
     3
  9
$SHADEDIF
 70
    70
  9
$TILEMODE
 70
     1
  9
$MAXACTVP
 70
    64
  9
$PLIMCHECK
 70
     0
  9
$PEXTMIN
 10
1.0000000000000000E+020
 20
1.0000000000000000E+020
 30
1.0000000000000000E+020
  9
$PEXTMAX
 10
-1.0000000000000000E+020
 20
-1.0000000000000000E+020
 30
-1.0000000000000000E+020
  9
$PLIMMIN
 10
0.0
 20
0.0
  9
$PLIMMAX
 10
12.0
 20
9.0
  9
$UNITMODE
 70
     0
  9
$VISRETAIN
 70
     0
  9
$PLINEGEN
 70
     1
  9
$PSLTSCALE
 70
     0
  0
ENDSEC
  0
SECTION
  2
TABLES
  0
TABLE
  2
VPORT
 70
     1
  0
VPORT
  2
*ACTIVE
 70
     0
 10
0.0
 20
0.0
 11
1.0
 21
1.0
 12
200.0021371268694
 22
272.38952762725489
 13
0.0
 23
0.0
 14
1.0
 24
1.0
 15
0.0
 25
0.0
 16
0.0
 26
0.0
 36
1.0
 17
0.0
 27
0.0
 37
0.0
 40
539.37124398481683
 41
2.436456996148908
 42
50.0
 43
0.0
 44
0.0
 50
0.0
 51
0.0
 71
     0
 72
  2000
 73
     1
 74
     1
 75
     0
 76
     0
 77
     0
 78
     0
  0
ENDTAB
  0
TABLE
  2
LTYPE
 70
    11
  0
LTYPE
  2
CONTINUOUS
 70
     0
  3
Solid line
 72
    65
 73
     0
 40
0.0
  0
ENDTAB
  0
TABLE
  2
LAYER
 70
     6
  0
LAYER
  2
0
 70
     0
 62
     7
  6
CONTINUOUS
  0
LAYER
  2
DATA
 70
     0
 62
     7
  6
CONTINUOUS
  0
LAYER
  2
HIBINO-BASE
 70
     0
 62
     7
  6
CONTINUOUS
  0
LAYER
  2
PATTERN_FILL
 70
     0
 62
     7
  6
CONTINUOUS
  0
LAYER
  2
SPEC
 70
     0
 62
     7
  6
CONTINUOUS
  0
LAYER
  2
DIMNSIONS
 70
     0
 62
     7
  6
CONTINUOUS
  0
ENDTAB
  0
TABLE
  2
STYLE
 70
     3
  0
STYLE
  2
STANDARD
 70
     0
 40
0.0
 41
1.0
 50
0.0
 71
     0
 42
0.0
  3
txt
  4
BIGFONT.SHX
  0
ENDTAB
  0
TABLE
  2
VIEW
 70
     0
  0
ENDTAB
  0
TABLE
  2
UCS
 70
     0
  0
ENDTAB
  0
TABLE
  2
APPID
 70
     4
  0
APPID
  2
ACAD
 70
     0
  0
APPID
  2
ACADANNOTATIVE
 70
     0
  0
APPID
  2
ACAD_NAV_VCDISPLAY
 70
     0
  0
APPID
  2
ACAD_MLEADERVER
 70
     0
  0
ENDTAB
  0
TABLE
  2
DIMSTYLE
 70
     2
  0
DIMSTYLE
  2
STANDARD
 70
     0
  3

  4

  5

  6

  7

 40
1.0
 41
0.18
 42
0.0625
 43
0.38
 44
0.18
 45
0.0
 46
0.0
 47
0.0
 48
0.0
140
0.18
141
0.09
142
0.0
143
25.399999999999999
144
1.0
145
0.0
146
1.0
147
0.09
 71
     0
 72
     0
 73
     1
 74
     1
 75
     0
 76
     0
 77
     0
 78
     0
170
     0
171
     2
172
     0
173
     0
174
     0
175
     0
176
     0
177
     0
178
     0
  0
ENDTAB
  0
ENDSEC
  0
SECTION
  2
BLOCKS
  0
BLOCK
  8
0
  2
$MODEL_SPACE
 70
     0
 10
0.0
 20
0.0
 30
0.0
  3
$MODEL_SPACE
  1

  0
ENDBLK
  5
61D
  8
0
  0
BLOCK
 67
     1
  8
0
  2
$PAPER_SPACE
 70
     0
 10
0.0
 20
0.0
 30
0.0
  3
$PAPER_SPACE
  1

  0
ENDBLK
  5
619
 67
     1
  8
0
  0
ENDSEC
  0
SECTION
  2
ENTITIES
  0
LINE
  5
2D
  8
HIBINO-BASE
  6
CONTINUOUS
 62
     7
 10
20.0
 20
540.0
 30
0.0
 11
380.0
 21
540.0
 31
0.0
  0
LINE
  5
2E
  8
HIBINO-BASE
  6
CONTINUOUS
 62
     7
 10
380.0
 20
20.0
 30
0.0
 11
20.0
 21
20.0
 31
0.0
  0
LINE
  5
2F
  8
HIBINO-BASE
  6
CONTINUOUS
 62
     7
 10
20.0
 20
20.0
 30
0.0
 11
20.0
 21
540.0
 31
0.0
  0
TEXT
  5
30
  8
HIBINO-BASE
 62
     7
 10
34.368000000000002
 20
7.1826444000000738
 30
0.0
 40
7.2000883593749991
  1
Hibino Corporation
 41
0.7
 11
34.368000000000002
 21
14.38273275937507
 31
0.0
 73
     3
  0
LINE
  5
31
  8
HIBINO-BASE
  6
CONTINUOUS
 62
     7
 10
380.0
 20
540.0
 30
0.0
 11
380.0
 21
20.0
 31
0.0
  0
LINE
  5
32
  8
HIBINO-BASE
  6
CONTINUOUS
 62
     7
 10
200.0
 20
65.000000000000014
 30
0.0
 11
380.0
 21
65.000000000000014
 31
0.0
  0
LINE
  5
33
  8
HIBINO-BASE
  6
CONTINUOUS
 62
     7
 10
200.0
 20
20.0
 30
0.0
 11
200.0
 21
65.000000000000014
 31
0.0
  0
TEXT
  5
34
  8
HIBINO-BASE
 62
     7
 10
201.80000000000001
 20
59.982613333333347
 30
0.0
 40
3.2576822916666659
  1
NOTE
 41
0.7
 11
201.80000000000001
 21
63.240295625000009
 31
0.0
 73
     3
  0
LINE
  5
35
  8
HIBINO-BASE
  6
CONTINUOUS
 62
     7
 10
270.0
 20
20.0
 30
0.0
 11
270.0
 21
65.000000000000014
 31
0.0
  0
TEXT
  5
36
  8
HIBINO-BASE
 62
     7
 10
271.7999999999999
 20
59.982613333333347
 30
0.0
 40
3.2576822916666659
  1
TITLE
 41
0.7
 11
271.7999999999999
 21
63.240295625000009
 31
0.0
 73
     3
  0
TEXT
  5
37
  8
HIBINO-BASE
 62
     7
 10
300.13677999999987
 20
7.1826444000000738
 30
0.0
 40
7.2000883593749991
  1
ヒビノ株式会社
 41
0.7
 11
300.13677999999987
 21
14.38273275937507
 31
0.0
 73
     3
  0
LINE
  5
38
  8
HIBINO-BASE
  6
CONTINUOUS
 62
     7
 10
200.0
 20
40.000000000000021
 30
0.0
 11
380.0
 21
40.000000000000021
 31
0.0
  0
TEXT
  5
39
  8
HIBINO-BASE
 62
     7
 10
296.7999999999999
 20
35.095253333333353
 30
0.0
 40
3.2576822916666659
  1
DRAWN
 41
0.7
 11
296.7999999999999
 21
38.352935625000022
 31
0.0
 73
     3
  0
TEXT
  5
3A
  8
HIBINO-BASE
 62
     7
 10
246.7999999999999
 20
35.095253333333353
 30
0.0
 40
3.2576822916666659
  1
DATE
 41
0.7
 11
246.7999999999999
 21
38.352935625000022
 31
0.0
 73
     3
  0
TEXT
  5
3B
  8
HIBINO-BASE
 62
     7
 10
226.80000000000001
 20
35.095253333333353
 30
0.0
 40
3.2576822916666659
  1
SCALE
 41
0.7
 11
226.80000000000001
 21
38.352935625000022
 31
0.0
 73
     3
  0
TEXT
  5
3C
  8
HIBINO-BASE
 62
     7
 10
271.7999999999999
 20
35.095253333333353
 30
0.0
 40
3.2576822916666659
  1
DESIGN
 41
0.7
 11
271.7999999999999
 21
38.352935625000022
 31
0.0
 73
     3
  0
TEXT
  5
3D
  8
HIBINO-BASE
 62
     7
 10
346.7999999999999
 20
35.095253333333353
 30
0.0
 40
3.2576822916666659
  1
DRAWING NO.
 41
0.7
 11
346.7999999999999
 21
38.352935625000022
 31
0.0
 73
     3
  0
TEXT
  5
3E
  8
HIBINO-BASE
 62
     7
 10
321.7999999999999
 20
35.095253333333353
 30
0.0
 40
3.2576822916666659
  1
CHECK
 41
0.7
 11
321.7999999999999
 21
38.352935625000022
 31
0.0
 73
     3
  0
LINE
  5
3F
  8
HIBINO-BASE
  6
CONTINUOUS
 62
     7
 10
228.75
 20
22.5
 30
0.0
 11
236.25
 21
30.000000000000028
 31
0.0
  0
TEXT
  5
40
  8
HIBINO-BASE
 62
     7
 10
227.5
 20
27.782113333333349
 30
0.0
 40
3.2576822916666659
  1
1
 41
0.7
 11
227.5
 21
31.039795625000011
 31
0.0
 73
     3
  0
LINE
  5
41
  8
HIBINO-BASE
  6
CONTINUOUS
 62
     7
 10
225.0
 20
20.0
 30
0.0
 11
225.0
 21
40.000000000000021
 31
0.0
  0
LINE
  5
42
  8
HIBINO-BASE
  6
CONTINUOUS
 62
     7
 10
245.0
 20
20.0
 30
0.0
 11
245.0
 21
40.000000000000021
 31
0.0
  0
LINE
  5
43
  8
HIBINO-BASE
  6
CONTINUOUS
 62
     7
 10
294.99999999999989
 20
40.000000000000021
 30
0.0
 11
294.99999999999989
 21
20.0
 31
0.0
  0
LINE
  5
44
  8
HIBINO-BASE
  6
CONTINUOUS
 62
     7
 10
345.0
 20
40.000000000000021
 30
0.0
 11
345.0
 21
20.0
 31
0.0
  0
LINE
  5
45
  8
HIBINO-BASE
  6
CONTINUOUS
 62
     7
 10
319.99999999999989
 20
20.0
 30
0.0
 11
319.99999999999989
 21
40.000000000000021
 31
0.0
  0
TEXT
  5
46
  8
HIBINO-BASE
 62
     7
 10
246.71307999999999
 20
25.727293333333339
 30
0.0
 40
3.2576822916666659
  1
'14.07.
 41
0.7
 11
246.71307999999999
 21
28.984975625000011
 31
0.0
 73
     3
  0
TEXT
  5
47
  8
HIBINO-BASE
 62
     7
 10
235.0
 20
24.032113333333349
 30
0.0
 40
3.2576822916666659
  1
2
 41
0.7
 11
235.0
 21
27.289795625000011
 31
0.0
 73
     3
  0
TEXT
  5
48
  8
HIBINO-BASE
 62
     7
 10
298.01162002206922
 20
25.727293333333339
 30
0.0
 40
3.2576822916666659
  1
ootake
 41
0.7
 11
298.01162002206922
 21
28.984975625000011
 31
0.0
 73
     3
  0
TEXT
  5
49
  8
HIBINO-BASE
 62
     7
 10
207.76666666666671
 20
23.95200000000003
 30
0.0
 40
6.5153645833333318
  1
A4
 41
0.7
 11
207.76666666666671
 21
30.467364583333371
 31
0.0
 73
     3
  0
TEXT
  5
4A
  8
HIBINO-BASE
 62
     7
 10
201.9166666666666
 20
34.761090000000017
 30
0.0
 40
3.2576822916666659
  1
PAPER SIZE
 41
0.7
 11
201.9166666666666
 21
38.018772291666693
 31
0.0
 73
     3
  0
ARC
  5
4B
  8
PATTERN_FILL
  6
CONTINUOUS
 62
     7
 10
100.0683181077363
 20
215.0
 30
0.0
 40
0.9999999999999968
 50
261.64611122143401
 51
64.912252582088513
  0
ARC
  5
4C
  8
PATTERN_FILL
  6
CONTINUOUS
 62
     7
 10
100.0683181077363
 20
212.0
 30
0.0
 40
0.9999999999999994
 50
216.6258140696084
 51
116.3471423391299
  0
CIRCLE
  5
4D
  8
PATTERN_FILL
  6
CONTINUOUS
 62
     7
 10
100.0683181077363
 20
209.0
 30
0.0
 40
1.0
  0
CIRCLE
  5
4E
  8
PATTERN_FILL
  6
CONTINUOUS
 62
     7
 10
100.0683181077363
 20
206.0
 30
0.0
 40
1.0
  0
CIRCLE
  5
4F
  8
PATTERN_FILL
  6
CONTINUOUS
 62
     7
 10
100.0683181077363
 20
203.0
 30
0.0
 40
1.0
  0
CIRCLE
  5
50
  8
PATTERN_FILL
  6
CONTINUOUS
 62
     7
 10
100.0683181077363
 20
200.0
 30
0.0
 40
1.0
  0
CIRCLE
  5
51
  8
PATTERN_FILL
  6
CONTINUOUS
 62
     7
 10
100.0683181077363
 20
197.0
 30
0.0
 40
1.0
  0
CIRCLE
  5
52
  8
PATTERN_FILL
  6
CONTINUOUS
 62
     7
 10
100.0683181077363
 20
194.0
 30
0.0
 40
1.0
  0
CIRCLE
  5
53
  8
PATTERN_FILL
  6
CONTINUOUS
 62
     7
 10
100.0683181077363
 20
191.0
 30
0.0
 40
1.0
  0
ARC
  5
54
  8
PATTERN_FILL
  6
CONTINUOUS
 62
     7
 10
100.0683181077363
 20
188.0
 30
0.0
 40
1.0000000000000031
 50
243.6528576608894
 51
143.37418593037569
  0
ARC
  5
55
  8
PATTERN_FILL
  6
CONTINUOUS
 62
     7
 10
100.0683181077363
 20
185.0
 30
0.0
 40
0.9999999999999902
 50
295.08774741792888
 51
98.353888778549404
  0
ARC
  5
56
  8
PATTERN_FILL
  6
CONTINUOUS
 62
     7
 10
103.0683181077363
 20
221.0
 30
0.0
 40
0.9999999999999987
 50
210.59670122161461
 51
100.25296934695579
  0
CIRCLE
  5
57
  8
PATTERN_FILL
  6
CONTINUOUS
 62
     7
 10
103.0683181077363
 20
218.0
 30
0.0
 40
1.0
  0
CIRCLE
  5
58
  8
PATTERN_FILL
  6
CONTINUOUS
 62
     7
 10
103.0683181077363
 20
215.0
 30
0.0
 40
1.0
  0
CIRCLE
  5
59
  8
PATTERN_FILL
  6
CONTINUOUS
 62
     7
 10
103.0683181077363
 20
212.0
 30
0.0
 40
1.0
  0
CIRCLE
  5
5A
  8
PATTERN_FILL
  6
CONTINUOUS
 62
     7
 10
103.0683181077363
 20
209.0
 30
0.0
 40
1.0
  0
CIRCLE
  5
5B
  8
PATTERN_FILL
  6
CONTINUOUS
 62
     7
 10
103.0683181077363
 20
206.0
 30
0.0
 40
1.0
  0
CIRCLE
  5
5C
  8
PATTERN_FILL
  6
CONTINUOUS
 62
     7
 10
103.0683181077363
 20
203.0
 30
0.0
 40
1.0
  0
CIRCLE
  5
5D
  8
PATTERN_FILL
  6
CONTINUOUS
 62
     7
 10
103.0683181077363
 20
200.0
 30
0.0
 40
1.0
  0
CIRCLE
  5
5E
  8
PATTERN_FILL
  6
CONTINUOUS
 62
     7
 10
103.0683181077363
 20
197.0
 30
0.0
 40
1.0
  0
CIRCLE
  5
5F
  8
PATTERN_FILL
  6
CONTINUOUS
 62
     7
 10
103.0683181077363
 20
194.0
 30
0.0
 40
1.0
  0
CIRCLE
  5
60
  8
PATTERN_FILL
  6
CONTINUOUS
 62
     7
 10
103.0683181077363
 20
191.0
 30
0.0
 40
1.0
  0
CIRCLE
  5
61
  8
PATTERN_FILL
  6
CONTINUOUS
 62
     7
 10
103.0683181077363
 20
188.0
 30
0.0
 40
1.0
  0
CIRCLE
  5
62
  8
PATTERN_FILL
  6
CONTINUOUS
 62
     7
 10
103.0683181077363
 20
185.0
 30
0.0
 40
1.0
  0
CIRCLE
  5
63
  8
PATTERN_FILL
  6
CONTINUOUS
 62
     7
 10
103.0683181077363
 20
182.0
 30
0.0
 40
1.0
  0
ARC
  5
64
  8
PATTERN_FILL
  6
CONTINUOUS
 62
     7
 10
103.0683181077363
 20
179.0
 30
0.0
 40
1.000000000000016
 50
258.80981157194628
 51
149.4032987783562
  0
ARC
  5
65
  8
PATTERN_FILL
  6
CONTINUOUS
 62
     7
 10
103.0683181077363
 20
176.0
 30
0.0
 40
0.9999999999999985
 50
342.88655321865889
 51
71.282183034822765
  0
CIRCLE
  5
66
  8
PATTERN_FILL
  6
CONTINUOUS
 62
     7
 10
106.0683181077363
 20
224.0
 30
0.0
 40
1.0
  0
CIRCLE
  5
67
  8
PATTERN_FILL
  6
CONTINUOUS
 62
     7
 10
106.0683181077363
 20
221.0
 30
0.0
 40
1.0
  0
CIRCLE
  5
68
  8
PATTERN_FILL
  6
CONTINUOUS
 62
     7
 10
106.0683181077363
 20
218.0
 30
0.0
 40
1.0
  0
CIRCLE
  5
69
  8
PATTERN_FILL
  6
CONTINUOUS
 62
     7
 10
106.0683181077363
 20
215.0
 30
0.0
 40
1.0
  0
CIRCLE
  5
6A
  8
PATTERN_FILL
  6
CONTINUOUS
 62
     7
 10
106.0683181077363
 20
212.0
 30
0.0
 40
1.0
  0
CIRCLE
  5
6B
  8
PATTERN_FILL
  6
CONTINUOUS
 62
     7
 10
106.0683181077363
 20
209.0
 30
0.0
 40
1.0
  0
CIRCLE
  5
6C
  8
PATTERN_FILL
  6
CONTINUOUS
 62
     7
 10
106.0683181077363
 20
206.0
 30
0.0
 40
1.0
  0
CIRCLE
  5
6D
  8
PATTERN_FILL
  6
CONTINUOUS
 62
     7
 10
106.0683181077363
 20
203.0
 30
0.0
 40
1.0
  0
CIRCLE
  5
6E
  8
PATTERN_FILL
  6
CONTINUOUS
 62
     7
 10
106.0683181077363
 20
200.0
 30
0.0
 40
1.0
  0
CIRCLE
  5
6F
  8
PATTERN_FILL
  6
CONTINUOUS
 62
     7
 10
106.0683181077363
 20
197.0
 30
0.0
 40
1.0
  0
CIRCLE
  5
70
  8
PATTERN_FILL
  6
CONTINUOUS
 62
     7
 10
106.0683181077363
 20
194.0
 30
0.0
 40
1.0
  0
CIRCLE
  5
71
  8
PATTERN_FILL
  6
CONTINUOUS
 62
     7
 10
106.0683181077363
 20
191.0
 30
0.0
 40
1.0
  0
CIRCLE
  5
72
  8
PATTERN_FILL
  6
CONTINUOUS
 62
     7
 10
106.0683181077363
 20
188.0
 30
0.0
 40
1.0
  0
CIRCLE
  5
73
  8
PATTERN_FILL
  6
CONTINUOUS
 62
     7
 10
106.0683181077363
 20
185.0
 30
0.0
 40
1.0
  0
CIRCLE
  5
74
  8
PATTERN_FILL
  6
CONTINUOUS
 62
     7
 10
106.0683181077363
 20
182.0
 30
0.0
 40
1.0
  0
CIRCLE
  5
75
  8
PATTERN_FILL
  6
CONTINUOUS
 62
     7
 10
106.0683181077363
 20
179.0
 30
0.0
 40
1.0
  0
CIRCLE
  5
76
  8
PATTERN_FILL
  6
CONTINUOUS
 62
     7
 10
106.0683181077363
 20
176.0
 30
0.0
 40
1.0
  0
ARC
  5
77
  8
PATTERN_FILL
  6
CONTINUOUS
 62
     7
 10
106.0683181077362
 20
173.0
 30
0.0
 40
0.9999999999999978
 50
276.31532145103358
 51
146.83366685264431
  0
ARC
  5
78
  8
PATTERN_FILL
  6
CONTINUOUS
 62
     7
 10
109.0683181077363
 20
227.0
 30
0.0
 40
1.0000000000000011
 50
199.74579816712091
 51
11.248105050998561
  0
CIRCLE
  5
79
  8
PATTERN_FILL
  6
CONTINUOUS
 62
     7
 10
109.0683181077363
 20
224.0
 30
0.0
 40
1.0
  0
CIRCLE
  5
7A
  8
PATTERN_FILL
  6
CONTINUOUS
 62
     7
 10
109.0683181077363
 20
221.0
 30
0.0
 40
1.0
  0
CIRCLE
  5
7B
  8
PATTERN_FILL
  6
CONTINUOUS
 62
     7
 10
109.0683181077363
 20
218.0
 30
0.0
 40
1.0
  0
CIRCLE
  5
7C
  8
PATTERN_FILL
  6
CONTINUOUS
 62
     7
 10
109.0683181077363
 20
215.0
 30
0.0
 40
1.0
  0
CIRCLE
  5
7D
  8
PATTERN_FILL
  6
CONTINUOUS
 62
     7
 10
109.0683181077363
 20
212.0
 30
0.0
 40
1.0
  0
CIRCLE
  5
7E
  8
PATTERN_FILL
  6
CONTINUOUS
 62
     7
 10
109.0683181077363
 20
209.0
 30
0.0
 40
1.0
  0
CIRCLE
  5
7F
  8
PATTERN_FILL
  6
CONTINUOUS
 62
     7
 10
109.0683181077363
 20
206.0
 30
0.0
 40
1.0
  0
CIRCLE
  5
80
  8
PATTERN_FILL
  6
CONTINUOUS
 62
     7
 10
109.0683181077363
 20
203.0
 30
0.0
 40
1.0
  0
CIRCLE
  5
81
  8
PATTERN_FILL
  6
CONTINUOUS
 62
     7
 10
109.0683181077363
 20
200.0
 30
0.0
 40
1.0
  0
CIRCLE
  5
82
  8
PATTERN_FILL
  6
CONTINUOUS
 62
     7
 10
109.0683181077363
 20
197.0
 30
0.0
 40
1.0
  0
CIRCLE
  5
83
  8
PATTERN_FILL
  6
CONTINUOUS
 62
     7
 10
109.0683181077363
 20
194.0
 30
0.0
 40
1.0
  0
CIRCLE
  5
84
  8
PATTERN_FILL
  6
CONTINUOUS
 62
     7
 10
109.0683181077363
 20
191.0
 30
0.0
 40
1.0
  0
CIRCLE
  5
85
  8
PATTERN_FILL
  6
CONTINUOUS
 62
     7
 10
109.0683181077363
 20
188.0
 30
0.0
 40
1.0
  0
CIRCLE
  5
86
  8
PATTERN_FILL
  6
CONTINUOUS
 62
     7
 10
109.0683181077363
 20
185.0
 30
0.0
 40
1.0
  0
CIRCLE
  5
87
  8
PATTERN_FILL
  6
CONTINUOUS
 62
     7
 10
109.0683181077363
 20
182.0
 30
0.0
 40
1.0
  0
CIRCLE
  5
88
  8
PATTERN_FILL
  6
CONTINUOUS
 62
     7
 10
109.0683181077363
 20
179.0
 30
0.0
 40
1.0
  0
CIRCLE
  5
89
  8
PATTERN_FILL
  6
CONTINUOUS
 62
     7
 10
109.0683181077363
 20
176.0
 30
0.0
 40
1.0
  0
CIRCLE
  5
8A
  8
PATTERN_FILL
  6
CONTINUOUS
 62
     7
 10
109.0683181077363
 20
173.0
 30
0.0
 40
1.0
  0
CIRCLE
  5
8B
  8
PATTERN_FILL
  6
CONTINUOUS
 62
     7
 10
109.0683181077363
 20
170.0
 30
0.0
 40
1.0
  0
ARC
  5
8C
  8
PATTERN_FILL
  6
CONTINUOUS
 62
     7
 10
109.0683181077363
 20
167.0
 30
0.0
 40
0.9999999999999978
 50
344.6034856806603
 51
93.149524359783143
  0
ARC
  5
8D
  8
PATTERN_FILL
  6
CONTINUOUS
 62
     7
 10
112.0683181077363
 20
227.0
 30
0.0
 40
1.0000000000000011
 50
161.3001484078687
 51
14.88558481730419
  0
CIRCLE
  5
8E
  8
PATTERN_FILL
  6
CONTINUOUS
 62
     7
 10
112.0683181077363
 20
224.0
 30
0.0
 40
1.0
  0
CIRCLE
  5
8F
  8
PATTERN_FILL
  6
CONTINUOUS
 62
     7
 10
112.0683181077363
 20
221.0
 30
0.0
 40
1.0
  0
CIRCLE
  5
90
  8
PATTERN_FILL
  6
CONTINUOUS
 62
     7
 10
112.0683181077363
 20
218.0
 30
0.0
 40
1.0
  0
CIRCLE
  5
91
  8
PATTERN_FILL
  6
CONTINUOUS
 62
     7
 10
112.0683181077363
 20
215.0
 30
0.0
 40
1.0
  0
CIRCLE
  5
92
  8
PATTERN_FILL
  6
CONTINUOUS
 62
     7
 10
112.0683181077363
 20
212.0
 30
0.0
 40
1.0
  0
CIRCLE
  5
93
  8
PATTERN_FILL
  6
CONTINUOUS
 62
     7
 10
112.0683181077363
 20
209.0
 30
0.0
 40
1.0
  0
CIRCLE
  5
94
  8
PATTERN_FILL
  6
CONTINUOUS
 62
     7
 10
112.0683181077363
 20
206.0
 30
0.0
 40
1.0
  0
CIRCLE
  5
95
  8
PATTERN_FILL
  6
CONTINUOUS
 62
     7
 10
112.0683181077363
 20
203.0
 30
0.0
 40
1.0
  0
CIRCLE
  5
96
  8
PATTERN_FILL
  6
CONTINUOUS
 62
     7
 10
112.0683181077363
 20
200.0
 30
0.0
 40
1.0
  0
CIRCLE
  5
97
  8
PATTERN_FILL
  6
CONTINUOUS
 62
     7
 10
112.0683181077363
 20
197.0
 30
0.0
 40
1.0
  0
CIRCLE
  5
98
  8
PATTERN_FILL
  6
CONTINUOUS
 62
     7
 10
112.0683181077363
 20
194.0
 30
0.0
 40
1.0
  0
CIRCLE
  5
99
  8
PATTERN_FILL
  6
CONTINUOUS
 62
     7
 10
112.0683181077363
 20
191.0
 30
0.0
 40
1.0
  0
CIRCLE
  5
9A
  8
PATTERN_FILL
  6
CONTINUOUS
 62
     7
 10
112.0683181077363
 20
188.0
 30
0.0
 40
1.0
  0
CIRCLE
  5
9B
  8
PATTERN_FILL
  6
CONTINUOUS
 62
     7
 10
112.0683181077363
 20
185.0
 30
0.0
 40
1.0
  0
CIRCLE
  5
9C
  8
PATTERN_FILL
  6
CONTINUOUS
 62
     7
 10
112.0683181077363
 20
182.0
 30
0.0
 40
1.0
  0
CIRCLE
  5
9D
  8
PATTERN_FILL
  6
CONTINUOUS
 62
     7
 10
112.0683181077363
 20
179.0
 30
0.0
 40
1.0
  0
CIRCLE
  5
9E
  8
PATTERN_FILL
  6
CONTINUOUS
 62
     7
 10
112.0683181077363
 20
176.0
 30
0.0
 40
1.0
  0
CIRCLE
  5
9F
  8
PATTERN_FILL
  6
CONTINUOUS
 62
     7
 10
112.0683181077363
 20
173.0
 30
0.0
 40
1.0
  0
CIRCLE
  5
A0
  8
PATTERN_FILL
  6
CONTINUOUS
 62
     7
 10
112.0683181077363
 20
170.0
 30
0.0
 40
1.0
  0
CIRCLE
  5
A1
  8
PATTERN_FILL
  6
CONTINUOUS
 62
     7
 10
112.0683181077363
 20
167.0
 30
0.0
 40
1.0
  0
ARC
  5
A2
  8
PATTERN_FILL
  6
CONTINUOUS
 62
     7
 10
112.0683181077363
 20
164.0
 30
0.0
 40
0.9999999999999936
 50
331.21103107639379
 51
115.7956095958325
  0
ARC
  5
A3
  8
PATTERN_FILL
  6
CONTINUOUS
 62
     7
 10
115.0683181077363
 20
227.0
 30
0.0
 40
1.0
 50
176.19092844358781
 51
326.0371325374137
  0
CIRCLE
  5
A4
  8
PATTERN_FILL
  6
CONTINUOUS
 62
     7
 10
115.0683181077363
 20
224.0
 30
0.0
 40
1.0
  0
CIRCLE
  5
A5
  8
PATTERN_FILL
  6
CONTINUOUS
 62
     7
 10
115.0683181077363
 20
221.0
 30
0.0
 40
1.0
  0
CIRCLE
  5
A6
  8
PATTERN_FILL
  6
CONTINUOUS
 62
     7
 10
115.0683181077363
 20
218.0
 30
0.0
 40
1.0
  0
CIRCLE
  5
A7
  8
PATTERN_FILL
  6
CONTINUOUS
 62
     7
 10
115.0683181077363
 20
215.0
 30
0.0
 40
1.0
  0
CIRCLE
  5
A8
  8
PATTERN_FILL
  6
CONTINUOUS
 62
     7
 10
115.0683181077363
 20
212.0
 30
0.0
 40
1.0
  0
CIRCLE
  5
A9
  8
PATTERN_FILL
  6
CONTINUOUS
 62
     7
 10
115.0683181077363
 20
209.0
 30
0.0
 40
1.0
  0
CIRCLE
  5
AA
  8
PATTERN_FILL
  6
CONTINUOUS
 62
     7
 10
115.0683181077363
 20
206.0
 30
0.0
 40
1.0
  0
CIRCLE
  5
AB
  8
PATTERN_FILL
  6
CONTINUOUS
 62
     7
 10
115.0683181077363
 20
203.0
 30
0.0
 40
1.0
  0
CIRCLE
  5
AC
  8
PATTERN_FILL
  6
CONTINUOUS
 62
     7
 10
115.0683181077363
 20
200.0
 30
0.0
 40
1.0
  0
CIRCLE
  5
AD
  8
PATTERN_FILL
  6
CONTINUOUS
 62
     7
 10
115.0683181077363
 20
197.0
 30
0.0
 40
1.0
  0
CIRCLE
  5
AE
  8
PATTERN_FILL
  6
CONTINUOUS
 62
     7
 10
115.0683181077363
 20
194.0
 30
0.0
 40
1.0
  0
CIRCLE
  5
AF
  8
PATTERN_FILL
  6
CONTINUOUS
 62
     7
 10
115.0683181077363
 20
191.0
 30
0.0
 40
1.0
  0
CIRCLE
  5
B0
  8
PATTERN_FILL
  6
CONTINUOUS
 62
     7
 10
115.0683181077363
 20
188.0
 30
0.0
 40
1.0
  0
CIRCLE
  5
B1
  8
PATTERN_FILL
  6
CONTINUOUS
 62
     7
 10
115.0683181077363
 20
185.0
 30
0.0
 40
1.0
  0
CIRCLE
  5
B2
  8
PATTERN_FILL
  6
CONTINUOUS
 62
     7
 10
115.0683181077363
 20
182.0
 30
0.0
 40
1.0
  0
CIRCLE
  5
B3
  8
PATTERN_FILL
  6
CONTINUOUS
 62
     7
 10
115.0683181077363
 20
179.0
 30
0.0
 40
1.0
  0
CIRCLE
  5
B4
  8
PATTERN_FILL
  6
CONTINUOUS
 62
     7
 10
115.0683181077363
 20
176.0
 30
0.0
 40
1.0
  0
CIRCLE
  5
B5
  8
PATTERN_FILL
  6
CONTINUOUS
 62
     7
 10
115.0683181077363
 20
173.0
 30
0.0
 40
1.0
  0
CIRCLE
  5
B6
  8
PATTERN_FILL
  6
CONTINUOUS
 62
     7
 10
115.0683181077363
 20
170.0
 30
0.0
 40
1.0
  0
CIRCLE
  5
B7
  8
PATTERN_FILL
  6
CONTINUOUS
 62
     7
 10
115.0683181077363
 20
167.0
 30
0.0
 40
1.0
  0
CIRCLE
  5
B8
  8
PATTERN_FILL
  6
CONTINUOUS
 62
     7
 10
115.0683181077363
 20
164.0
 30
0.0
 40
1.0
  0
ARC
  5
B9
  8
PATTERN_FILL
  6
CONTINUOUS
 62
     7
 10
115.0683181077363
 20
161.0
 30
0.0
 40
0.9999999999999978
 50
339.55846982730372
 51
116.7409297786061
  0
CIRCLE
  5
BA
  8
PATTERN_FILL
  6
CONTINUOUS
 62
     7
 10
118.0683181077363
 20
224.0
 30
0.0
 40
1.0
  0
CIRCLE
  5
BB
  8
PATTERN_FILL
  6
CONTINUOUS
 62
     7
 10
118.0683181077363
 20
221.0
 30
0.0
 40
1.0
  0
CIRCLE
  5
BC
  8
PATTERN_FILL
  6
CONTINUOUS
 62
     7
 10
118.0683181077363
 20
218.0
 30
0.0
 40
1.0
  0
CIRCLE
  5
BD
  8
PATTERN_FILL
  6
CONTINUOUS
 62
     7
 10
118.0683181077363
 20
215.0
 30
0.0
 40
1.0
  0
CIRCLE
  5
BE
  8
PATTERN_FILL
  6
CONTINUOUS
 62
     7
 10
118.0683181077363
 20
212.0
 30
0.0
 40
1.0
  0
CIRCLE
  5
BF
  8
PATTERN_FILL
  6
CONTINUOUS
 62
     7
 10
118.0683181077363
 20
209.0
 30
0.0
 40
1.0
  0
CIRCLE
  5
C0
  8
PATTERN_FILL
  6
CONTINUOUS
 62
     7
 10
118.0683181077363
 20
206.0
 30
0.0
 40
1.0
  0
CIRCLE
  5
C1
  8
PATTERN_FILL
  6
CONTINUOUS
 62
     7
 10
118.0683181077363
 20
203.0
 30
0.0
 40
1.0
  0
CIRCLE
  5
C2
  8
PATTERN_FILL
  6
CONTINUOUS
 62
     7
 10
118.0683181077363
 20
200.0
 30
0.0
 40
1.0
  0
CIRCLE
  5
C3
  8
PATTERN_FILL
  6
CONTINUOUS
 62
     7
 10
118.0683181077363
 20
197.0
 30
0.0
 40
1.0
  0
CIRCLE
  5
C4
  8
PATTERN_FILL
  6
CONTINUOUS
 62
     7
 10
118.0683181077363
 20
194.0
 30
0.0
 40
1.0
  0
CIRCLE
  5
C5
  8
PATTERN_FILL
  6
CONTINUOUS
 62
     7
 10
118.0683181077363
 20
191.0
 30
0.0
 40
1.0
  0
CIRCLE
  5
C6
  8
PATTERN_FILL
  6
CONTINUOUS
 62
     7
 10
118.0683181077363
 20
188.0
 30
0.0
 40
1.0
  0
CIRCLE
  5
C7
  8
PATTERN_FILL
  6
CONTINUOUS
 62
     7
 10
118.0683181077363
 20
185.0
 30
0.0
 40
1.0
  0
CIRCLE
  5
C8
  8
PATTERN_FILL
  6
CONTINUOUS
 62
     7
 10
118.0683181077363
 20
182.0
 30
0.0
 40
1.0
  0
CIRCLE
  5
C9
  8
PATTERN_FILL
  6
CONTINUOUS
 62
     7
 10
118.0683181077363
 20
179.0
 30
0.0
 40
1.0
  0
CIRCLE
  5
CA
  8
PATTERN_FILL
  6
CONTINUOUS
 62
     7
 10
118.0683181077363
 20
176.0
 30
0.0
 40
1.0
  0
CIRCLE
  5
CB
  8
PATTERN_FILL
  6
CONTINUOUS
 62
     7
 10
118.0683181077363
 20
173.0
 30
0.0
 40
1.0
  0
CIRCLE
  5
CC
  8
PATTERN_FILL
  6
CONTINUOUS
 62
     7
 10
118.0683181077363
 20
170.0
 30
0.0
 40
1.0
  0
CIRCLE
  5
CD
  8
PATTERN_FILL
  6
CONTINUOUS
 62
     7
 10
118.0683181077363
 20
167.0
 30
0.0
 40
1.0
  0
CIRCLE
  5
CE
  8
PATTERN_FILL
  6
CONTINUOUS
 62
     7
 10
118.0683181077363
 20
164.0
 30
0.0
 40
1.0
  0
CIRCLE
  5
CF
  8
PATTERN_FILL
  6
CONTINUOUS
 62
     7
 10
118.0683181077363
 20
161.0
 30
0.0
 40
1.0
  0
ARC
  5
D0
  8
PATTERN_FILL
  6
CONTINUOUS
 62
     7
 10
118.0683181077363
 20
158.0
 30
0.0
 40
0.9999999999999945
 50
13.70551426234586
 51
92.924486715776155
  0
ARC
  5
D1
  8
PATTERN_FILL
  6
CONTINUOUS
 62
     7
 10
121.0683181077363
 20
224.0
 30
0.0
 40
0.9999999999999957
 50
136.0766120451357
 51
5.377692038436181
  0
CIRCLE
  5
D2
  8
PATTERN_FILL
  6
CONTINUOUS
 62
     7
 10
121.0683181077363
 20
221.0
 30
0.0
 40
1.0
  0
CIRCLE
  5
D3
  8
PATTERN_FILL
  6
CONTINUOUS
 62
     7
 10
121.0683181077363
 20
218.0
 30
0.0
 40
1.0
  0
CIRCLE
  5
D4
  8
PATTERN_FILL
  6
CONTINUOUS
 62
     7
 10
121.0683181077363
 20
215.0
 30
0.0
 40
1.0
  0
CIRCLE
  5
D5
  8
PATTERN_FILL
  6
CONTINUOUS
 62
     7
 10
121.0683181077363
 20
212.0
 30
0.0
 40
1.0
  0
CIRCLE
  5
D6
  8
PATTERN_FILL
  6
CONTINUOUS
 62
     7
 10
121.0683181077363
 20
209.0
 30
0.0
 40
1.0
  0
CIRCLE
  5
D7
  8
PATTERN_FILL
  6
CONTINUOUS
 62
     7
 10
121.0683181077363
 20
206.0
 30
0.0
 40
1.0
  0
CIRCLE
  5
D8
  8
PATTERN_FILL
  6
CONTINUOUS
 62
     7
 10
121.0683181077363
 20
203.0
 30
0.0
 40
1.0
  0
CIRCLE
  5
D9
  8
PATTERN_FILL
  6
CONTINUOUS
 62
     7
 10
121.0683181077363
 20
200.0
 30
0.0
 40
1.0
  0
CIRCLE
  5
DA
  8
PATTERN_FILL
  6
CONTINUOUS
 62
     7
 10
121.0683181077363
 20
197.0
 30
0.0
 40
1.0
  0
CIRCLE
  5
DB
  8
PATTERN_FILL
  6
CONTINUOUS
 62
     7
 10
121.0683181077363
 20
194.0
 30
0.0
 40
1.0
  0
CIRCLE
  5
DC
  8
PATTERN_FILL
  6
CONTINUOUS
 62
     7
 10
121.0683181077363
 20
191.0
 30
0.0
 40
1.0
  0
CIRCLE
  5
DD
  8
PATTERN_FILL
  6
CONTINUOUS
 62
     7
 10
121.0683181077363
 20
188.0
 30
0.0
 40
1.0
  0
CIRCLE
  5
DE
  8
PATTERN_FILL
  6
CONTINUOUS
 62
     7
 10
121.0683181077363
 20
185.0
 30
0.0
 40
1.0
  0
CIRCLE
  5
DF
  8
PATTERN_FILL
  6
CONTINUOUS
 62
     7
 10
121.0683181077363
 20
182.0
 30
0.0
 40
1.0
  0
CIRCLE
  5
E0
  8
PATTERN_FILL
  6
CONTINUOUS
 62
     7
 10
121.0683181077363
 20
179.0
 30
0.0
 40
1.0
  0
CIRCLE
  5
E1
  8
PATTERN_FILL
  6
CONTINUOUS
 62
     7
 10
121.0683181077363
 20
176.0
 30
0.0
 40
1.0
  0
CIRCLE
  5
E2
  8
PATTERN_FILL
  6
CONTINUOUS
 62
     7
 10
121.0683181077363
 20
173.0
 30
0.0
 40
1.0
  0
CIRCLE
  5
E3
  8
PATTERN_FILL
  6
CONTINUOUS
 62
     7
 10
121.0683181077363
 20
170.0
 30
0.0
 40
1.0
  0
CIRCLE
  5
E4
  8
PATTERN_FILL
  6
CONTINUOUS
 62
     7
 10
121.0683181077363
 20
167.0
 30
0.0
 40
1.0
  0
CIRCLE
  5
E5
  8
PATTERN_FILL
  6
CONTINUOUS
 62
     7
 10
121.0683181077363
 20
164.0
 30
0.0
 40
1.0
  0
CIRCLE
  5
E6
  8
PATTERN_FILL
  6
CONTINUOUS
 62
     7
 10
121.0683181077363
 20
161.0
 30
0.0
 40
1.0
  0
CIRCLE
  5
E7
  8
PATTERN_FILL
  6
CONTINUOUS
 62
     7
 10
121.0683181077363
 20
158.0
 30
0.0
 40
1.0
  0
ARC
  5
E8
  8
PATTERN_FILL
  6
CONTINUOUS
 62
     7
 10
124.0683181077363
 20
224.0
 30
0.0
 40
0.9999999999999971
 50
194.43275284488379
 51
310.76467667776433
  0
CIRCLE
  5
E9
  8
PATTERN_FILL
  6
CONTINUOUS
 62
     7
 10
124.0683181077363
 20
221.0
 30
0.0
 40
1.0
  0
CIRCLE
  5
EA
  8
PATTERN_FILL
  6
CONTINUOUS
 62
     7
 10
124.0683181077363
 20
218.0
 30
0.0
 40
1.0
  0
CIRCLE
  5
EB
  8
PATTERN_FILL
  6
CONTINUOUS
 62
     7
 10
124.0683181077363
 20
215.0
 30
0.0
 40
1.0
  0
CIRCLE
  5
EC
  8
PATTERN_FILL
  6
CONTINUOUS
 62
     7
 10
124.0683181077363
 20
212.0
 30
0.0
 40
1.0
  0
CIRCLE
  5
ED
  8
PATTERN_FILL
  6
CONTINUOUS
 62
     7
 10
124.0683181077363
 20
209.0
 30
0.0
 40
1.0
  0
CIRCLE
  5
EE
  8
PATTERN_FILL
  6
CONTINUOUS
 62
     7
 10
124.0683181077363
 20
206.0
 30
0.0
 40
1.0
  0
CIRCLE
  5
EF
  8
PATTERN_FILL
  6
CONTINUOUS
 62
     7
 10
124.0683181077363
 20
203.0
 30
0.0
 40
1.0
  0
CIRCLE
  5
F0
  8
PATTERN_FILL
  6
CONTINUOUS
 62
     7
 10
124.0683181077363
 20
200.0
 30
0.0
 40
1.0
  0
CIRCLE
  5
F1
  8
PATTERN_FILL
  6
CONTINUOUS
 62
     7
 10
124.0683181077363
 20
197.0
 30
0.0
 40
1.0
  0
CIRCLE
  5
F2
  8
PATTERN_FILL
  6
CONTINUOUS
 62
     7
 10
124.0683181077363
 20
194.0
 30
0.0
 40
1.0
  0
CIRCLE
  5
F3
  8
PATTERN_FILL
  6
CONTINUOUS
 62
     7
 10
124.0683181077363
 20
191.0
 30
0.0
 40
1.0
  0
CIRCLE
  5
F4
  8
PATTERN_FILL
  6
CONTINUOUS
 62
     7
 10
124.0683181077363
 20
188.0
 30
0.0
 40
1.0
  0
CIRCLE
  5
F5
  8
PATTERN_FILL
  6
CONTINUOUS
 62
     7
 10
124.0683181077363
 20
185.0
 30
0.0
 40
1.0
  0
CIRCLE
  5
F6
  8
PATTERN_FILL
  6
CONTINUOUS
 62
     7
 10
124.0683181077363
 20
182.0
 30
0.0
 40
1.0
  0
CIRCLE
  5
F7
  8
PATTERN_FILL
  6
CONTINUOUS
 62
     7
 10
124.0683181077363
 20
179.0
 30
0.0
 40
1.0
  0
CIRCLE
  5
F8
  8
PATTERN_FILL
  6
CONTINUOUS
 62
     7
 10
124.0683181077363
 20
176.0
 30
0.0
 40
1.0
  0
CIRCLE
  5
F9
  8
PATTERN_FILL
  6
CONTINUOUS
 62
     7
 10
124.0683181077363
 20
173.0
 30
0.0
 40
1.0
  0
CIRCLE
  5
FA
  8
PATTERN_FILL
  6
CONTINUOUS
 62
     7
 10
124.0683181077363
 20
170.0
 30
0.0
 40
1.0
  0
CIRCLE
  5
FB
  8
PATTERN_FILL
  6
CONTINUOUS
 62
     7
 10
124.0683181077363
 20
167.0
 30
0.0
 40
1.0
  0
CIRCLE
  5
FC
  8
PATTERN_FILL
  6
CONTINUOUS
 62
     7
 10
124.0683181077363
 20
164.0
 30
0.0
 40
1.0
  0
CIRCLE
  5
FD
  8
PATTERN_FILL
  6
CONTINUOUS
 62
     7
 10
124.0683181077363
 20
161.0
 30
0.0
 40
1.0
  0
CIRCLE
  5
FE
  8
PATTERN_FILL
  6
CONTINUOUS
 62
     7
 10
124.0683181077363
 20
158.0
 30
0.0
 40
1.0
  0
CIRCLE
  5
FF
  8
PATTERN_FILL
  6
CONTINUOUS
 62
     7
 10
127.0683181077363
 20
221.0
 30
0.0
 40
1.0
  0
CIRCLE
  5
100
  8
PATTERN_FILL
  6
CONTINUOUS
 62
     7
 10
127.0683181077363
 20
218.0
 30
0.0
 40
1.0
  0
CIRCLE
  5
101
  8
PATTERN_FILL
  6
CONTINUOUS
 62
     7
 10
127.0683181077363
 20
215.0
 30
0.0
 40
1.0
  0
CIRCLE
  5
102
  8
PATTERN_FILL
  6
CONTINUOUS
 62
     7
 10
127.0683181077363
 20
212.0
 30
0.0
 40
1.0
  0
CIRCLE
  5
103
  8
PATTERN_FILL
  6
CONTINUOUS
 62
     7
 10
127.0683181077363
 20
209.0
 30
0.0
 40
1.0
  0
CIRCLE
  5
104
  8
PATTERN_FILL
  6
CONTINUOUS
 62
     7
 10
127.0683181077363
 20
206.0
 30
0.0
 40
1.0
  0
CIRCLE
  5
105
  8
PATTERN_FILL
  6
CONTINUOUS
 62
     7
 10
127.0683181077363
 20
203.0
 30
0.0
 40
1.0
  0
CIRCLE
  5
106
  8
PATTERN_FILL
  6
CONTINUOUS
 62
     7
 10
127.0683181077363
 20
200.0
 30
0.0
 40
1.0
  0
CIRCLE
  5
107
  8
PATTERN_FILL
  6
CONTINUOUS
 62
     7
 10
127.0683181077363
 20
197.0
 30
0.0
 40
1.0
  0
CIRCLE
  5
108
  8
PATTERN_FILL
  6
CONTINUOUS
 62
     7
 10
127.0683181077363
 20
194.0
 30
0.0
 40
1.0
  0
CIRCLE
  5
109
  8
PATTERN_FILL
  6
CONTINUOUS
 62
     7
 10
127.0683181077363
 20
191.0
 30
0.0
 40
1.0
  0
CIRCLE
  5
10A
  8
PATTERN_FILL
  6
CONTINUOUS
 62
     7
 10
127.0683181077363
 20
188.0
 30
0.0
 40
1.0
  0
CIRCLE
  5
10B
  8
PATTERN_FILL
  6
CONTINUOUS
 62
     7
 10
127.0683181077363
 20
185.0
 30
0.0
 40
1.0
  0
CIRCLE
  5
10C
  8
PATTERN_FILL
  6
CONTINUOUS
 62
     7
 10
127.0683181077363
 20
182.0
 30
0.0
 40
1.0
  0
CIRCLE
  5
10D
  8
PATTERN_FILL
  6
CONTINUOUS
 62
     7
 10
127.0683181077363
 20
179.0
 30
0.0
 40
1.0
  0
CIRCLE
  5
10E
  8
PATTERN_FILL
  6
CONTINUOUS
 62
     7
 10
127.0683181077363
 20
176.0
 30
0.0
 40
1.0
  0
CIRCLE
  5
10F
  8
PATTERN_FILL
  6
CONTINUOUS
 62
     7
 10
127.0683181077363
 20
173.0
 30
0.0
 40
1.0
  0
CIRCLE
  5
110
  8
PATTERN_FILL
  6
CONTINUOUS
 62
     7
 10
127.0683181077363
 20
170.0
 30
0.0
 40
1.0
  0
CIRCLE
  5
111
  8
PATTERN_FILL
  6
CONTINUOUS
 62
     7
 10
127.0683181077363
 20
167.0
 30
0.0
 40
1.0
  0
CIRCLE
  5
112
  8
PATTERN_FILL
  6
CONTINUOUS
 62
     7
 10
127.0683181077363
 20
164.0
 30
0.0
 40
1.0
  0
CIRCLE
  5
113
  8
PATTERN_FILL
  6
CONTINUOUS
 62
     7
 10
127.0683181077363
 20
161.0
 30
0.0
 40
1.0
  0
CIRCLE
  5
114
  8
PATTERN_FILL
  6
CONTINUOUS
 62
     7
 10
127.0683181077363
 20
158.0
 30
0.0
 40
1.0
  0
ARC
  5
115
  8
PATTERN_FILL
  6
CONTINUOUS
 62
     7
 10
127.0683181077363
 20
155.0
 30
0.0
 40
1.000000000000006
 50
52.844217202703781
 51
127.97060080591319
  0
ARC
  5
116
  8
PATTERN_FILL
  6
CONTINUOUS
 62
     7
 10
130.06831810773619
 20
221.0
 30
0.0
 40
0.9999999999999776
 50
114.8797601282543
 51
38.946880587383937
  0
CIRCLE
  5
117
  8
PATTERN_FILL
  6
CONTINUOUS
 62
     7
 10
130.06831810773619
 20
218.0
 30
0.0
 40
1.0
  0
CIRCLE
  5
118
  8
PATTERN_FILL
  6
CONTINUOUS
 62
     7
 10
130.06831810773619
 20
215.0
 30
0.0
 40
1.0
  0
CIRCLE
  5
119
  8
PATTERN_FILL
  6
CONTINUOUS
 62
     7
 10
130.06831810773619
 20
212.0
 30
0.0
 40
1.0
  0
CIRCLE
  5
11A
  8
PATTERN_FILL
  6
CONTINUOUS
 62
     7
 10
130.06831810773619
 20
209.0
 30
0.0
 40
1.0
  0
CIRCLE
  5
11B
  8
PATTERN_FILL
  6
CONTINUOUS
 62
     7
 10
130.06831810773619
 20
206.0
 30
0.0
 40
1.0
  0
CIRCLE
  5
11C
  8
PATTERN_FILL
  6
CONTINUOUS
 62
     7
 10
130.06831810773619
 20
203.0
 30
0.0
 40
1.0
  0
CIRCLE
  5
11D
  8
PATTERN_FILL
  6
CONTINUOUS
 62
     7
 10
130.06831810773619
 20
200.0
 30
0.0
 40
1.0
  0
CIRCLE
  5
11E
  8
PATTERN_FILL
  6
CONTINUOUS
 62
     7
 10
130.06831810773619
 20
197.0
 30
0.0
 40
1.0
  0
CIRCLE
  5
11F
  8
PATTERN_FILL
  6
CONTINUOUS
 62
     7
 10
130.06831810773619
 20
194.0
 30
0.0
 40
1.0
  0
CIRCLE
  5
120
  8
PATTERN_FILL
  6
CONTINUOUS
 62
     7
 10
130.06831810773619
 20
191.0
 30
0.0
 40
1.0
  0
CIRCLE
  5
121
  8
PATTERN_FILL
  6
CONTINUOUS
 62
     7
 10
130.06831810773619
 20
188.0
 30
0.0
 40
1.0
  0
CIRCLE
  5
122
  8
PATTERN_FILL
  6
CONTINUOUS
 62
     7
 10
130.06831810773619
 20
185.0
 30
0.0
 40
1.0
  0
CIRCLE
  5
123
  8
PATTERN_FILL
  6
CONTINUOUS
 62
     7
 10
130.06831810773619
 20
182.0
 30
0.0
 40
1.0
  0
CIRCLE
  5
124
  8
PATTERN_FILL
  6
CONTINUOUS
 62
     7
 10
130.06831810773619
 20
179.0
 30
0.0
 40
1.0
  0
CIRCLE
  5
125
  8
PATTERN_FILL
  6
CONTINUOUS
 62
     7
 10
130.06831810773619
 20
176.0
 30
0.0
 40
1.0
  0
CIRCLE
  5
126
  8
PATTERN_FILL
  6
CONTINUOUS
 62
     7
 10
130.06831810773619
 20
173.0
 30
0.0
 40
1.0
  0
CIRCLE
  5
127
  8
PATTERN_FILL
  6
CONTINUOUS
 62
     7
 10
130.06831810773619
 20
170.0
 30
0.0
 40
1.0
  0
CIRCLE
  5
128
  8
PATTERN_FILL
  6
CONTINUOUS
 62
     7
 10
130.06831810773619
 20
167.0
 30
0.0
 40
1.0
  0
CIRCLE
  5
129
  8
PATTERN_FILL
  6
CONTINUOUS
 62
     7
 10
130.06831810773619
 20
164.0
 30
0.0
 40
1.0
  0
CIRCLE
  5
12A
  8
PATTERN_FILL
  6
CONTINUOUS
 62
     7
 10
130.06831810773619
 20
161.0
 30
0.0
 40
1.0
  0
CIRCLE
  5
12B
  8
PATTERN_FILL
  6
CONTINUOUS
 62
     7
 10
130.06831810773619
 20
158.0
 30
0.0
 40
1.0
  0
ARC
  5
12C
  8
PATTERN_FILL
  6
CONTINUOUS
 62
     7
 10
133.06831810773619
 20
221.0
 30
0.0
 40
0.9999999999999978
 50
159.54276080789791
 51
358.11590304158091
  0
CIRCLE
  5
12D
  8
PATTERN_FILL
  6
CONTINUOUS
 62
     7
 10
133.06831810773619
 20
218.0
 30
0.0
 40
1.0
  0
CIRCLE
  5
12E
  8
PATTERN_FILL
  6
CONTINUOUS
 62
     7
 10
133.06831810773619
 20
215.0
 30
0.0
 40
1.0
  0
CIRCLE
  5
12F
  8
PATTERN_FILL
  6
CONTINUOUS
 62
     7
 10
133.06831810773619
 20
212.0
 30
0.0
 40
1.0
  0
CIRCLE
  5
130
  8
PATTERN_FILL
  6
CONTINUOUS
 62
     7
 10
133.06831810773619
 20
209.0
 30
0.0
 40
1.0
  0
CIRCLE
  5
131
  8
PATTERN_FILL
  6
CONTINUOUS
 62
     7
 10
133.06831810773619
 20
206.0
 30
0.0
 40
1.0
  0
CIRCLE
  5
132
  8
PATTERN_FILL
  6
CONTINUOUS
 62
     7
 10
133.06831810773619
 20
203.0
 30
0.0
 40
1.0
  0
CIRCLE
  5
133
  8
PATTERN_FILL
  6
CONTINUOUS
 62
     7
 10
133.06831810773619
 20
200.0
 30
0.0
 40
1.0
  0
CIRCLE
  5
134
  8
PATTERN_FILL
  6
CONTINUOUS
 62
     7
 10
133.06831810773619
 20
197.0
 30
0.0
 40
1.0
  0
CIRCLE
  5
135
  8
PATTERN_FILL
  6
CONTINUOUS
 62
     7
 10
133.06831810773619
 20
194.0
 30
0.0
 40
1.0
  0
CIRCLE
  5
136
  8
PATTERN_FILL
  6
CONTINUOUS
 62
     7
 10
133.06831810773619
 20
191.0
 30
0.0
 40
1.0
  0
CIRCLE
  5
137
  8
PATTERN_FILL
  6
CONTINUOUS
 62
     7
 10
133.06831810773619
 20
188.0
 30
0.0
 40
1.0
  0
CIRCLE
  5
138
  8
PATTERN_FILL
  6
CONTINUOUS
 62
     7
 10
133.06831810773619
 20
185.0
 30
0.0
 40
1.0
  0
CIRCLE
  5
139
  8
PATTERN_FILL
  6
CONTINUOUS
 62
     7
 10
133.06831810773619
 20
182.0
 30
0.0
 40
1.0
  0
CIRCLE
  5
13A
  8
PATTERN_FILL
  6
CONTINUOUS
 62
     7
 10
133.06831810773619
 20
179.0
 30
0.0
 40
1.0
  0
CIRCLE
  5
13B
  8
PATTERN_FILL
  6
CONTINUOUS
 62
     7
 10
133.06831810773619
 20
176.0
 30
0.0
 40
1.0
  0
CIRCLE
  5
13C
  8
PATTERN_FILL
  6
CONTINUOUS
 62
     7
 10
133.06831810773619
 20
173.0
 30
0.0
 40
1.0
  0
CIRCLE
  5
13D
  8
PATTERN_FILL
  6
CONTINUOUS
 62
     7
 10
133.06831810773619
 20
170.0
 30
0.0
 40
1.0
  0
CIRCLE
  5
13E
  8
PATTERN_FILL
  6
CONTINUOUS
 62
     7
 10
133.06831810773619
 20
167.0
 30
0.0
 40
1.0
  0
CIRCLE
  5
13F
  8
PATTERN_FILL
  6
CONTINUOUS
 62
     7
 10
133.06831810773619
 20
164.0
 30
0.0
 40
1.0
  0
CIRCLE
  5
140
  8
PATTERN_FILL
  6
CONTINUOUS
 62
     7
 10
133.06831810773619
 20
161.0
 30
0.0
 40
1.0
  0
CIRCLE
  5
141
  8
PATTERN_FILL
  6
CONTINUOUS
 62
     7
 10
133.06831810773619
 20
158.0
 30
0.0
 40
1.0
  0
ARC
  5
142
  8
PATTERN_FILL
  6
CONTINUOUS
 62
     7
 10
136.06831810773619
 20
221.0
 30
0.0
 40
1.0000000000000051
 50
192.52285582884221
 51
329.01909957995832
  0
CIRCLE
  5
143
  8
PATTERN_FILL
  6
CONTINUOUS
 62
     7
 10
136.06831810773619
 20
218.0
 30
0.0
 40
1.0
  0
CIRCLE
  5
144
  8
PATTERN_FILL
  6
CONTINUOUS
 62
     7
 10
136.06831810773619
 20
215.0
 30
0.0
 40
1.0
  0
CIRCLE
  5
145
  8
PATTERN_FILL
  6
CONTINUOUS
 62
     7
 10
136.06831810773619
 20
212.0
 30
0.0
 40
1.0
  0
CIRCLE
  5
146
  8
PATTERN_FILL
  6
CONTINUOUS
 62
     7
 10
136.06831810773619
 20
209.0
 30
0.0
 40
1.0
  0
CIRCLE
  5
147
  8
PATTERN_FILL
  6
CONTINUOUS
 62
     7
 10
136.06831810773619
 20
206.0
 30
0.0
 40
1.0
  0
CIRCLE
  5
148
  8
PATTERN_FILL
  6
CONTINUOUS
 62
     7
 10
136.06831810773619
 20
203.0
 30
0.0
 40
1.0
  0
CIRCLE
  5
149
  8
PATTERN_FILL
  6
CONTINUOUS
 62
     7
 10
136.06831810773619
 20
200.0
 30
0.0
 40
1.0
  0
CIRCLE
  5
14A
  8
PATTERN_FILL
  6
CONTINUOUS
 62
     7
 10
136.06831810773619
 20
197.0
 30
0.0
 40
1.0
  0
CIRCLE
  5
14B
  8
PATTERN_FILL
  6
CONTINUOUS
 62
     7
 10
136.06831810773619
 20
194.0
 30
0.0
 40
1.0
  0
CIRCLE
  5
14C
  8
PATTERN_FILL
  6
CONTINUOUS
 62
     7
 10
136.06831810773619
 20
191.0
 30
0.0
 40
1.0
  0
CIRCLE
  5
14D
  8
PATTERN_FILL
  6
CONTINUOUS
 62
     7
 10
136.06831810773619
 20
188.0
 30
0.0
 40
1.0
  0
CIRCLE
  5
14E
  8
PATTERN_FILL
  6
CONTINUOUS
 62
     7
 10
136.06831810773619
 20
185.0
 30
0.0
 40
1.0
  0
CIRCLE
  5
14F
  8
PATTERN_FILL
  6
CONTINUOUS
 62
     7
 10
136.06831810773619
 20
182.0
 30
0.0
 40
1.0
  0
CIRCLE
  5
150
  8
PATTERN_FILL
  6
CONTINUOUS
 62
     7
 10
136.06831810773619
 20
179.0
 30
0.0
 40
1.0
  0
CIRCLE
  5
151
  8
PATTERN_FILL
  6
CONTINUOUS
 62
     7
 10
136.06831810773619
 20
176.0
 30
0.0
 40
1.0
  0
CIRCLE
  5
152
  8
PATTERN_FILL
  6
CONTINUOUS
 62
     7
 10
136.06831810773619
 20
173.0
 30
0.0
 40
1.0
  0
CIRCLE
  5
153
  8
PATTERN_FILL
  6
CONTINUOUS
 62
     7
 10
136.06831810773619
 20
170.0
 30
0.0
 40
1.0
  0
CIRCLE
  5
154
  8
PATTERN_FILL
  6
CONTINUOUS
 62
     7
 10
136.06831810773619
 20
167.0
 30
0.0
 40
1.0
  0
CIRCLE
  5
155
  8
PATTERN_FILL
  6
CONTINUOUS
 62
     7
 10
136.06831810773619
 20
164.0
 30
0.0
 40
1.0
  0
CIRCLE
  5
156
  8
PATTERN_FILL
  6
CONTINUOUS
 62
     7
 10
136.06831810773619
 20
161.0
 30
0.0
 40
1.0
  0
ARC
  5
157
  8
PATTERN_FILL
  6
CONTINUOUS
 62
     7
 10
136.06831810773619
 20
158.0
 30
0.0
 40
1.0000000000000131
 50
329.14870505094132
 51
229.6020541357756
  0
ARC
  5
158
  8
PATTERN_FILL
  6
CONTINUOUS
 62
     7
 10
139.06831810773619
 20
221.0
 30
0.0
 40
0.999999999999998
 50
226.23943019793461
 51
299.2290411354158
  0
CIRCLE
  5
159
  8
PATTERN_FILL
  6
CONTINUOUS
 62
     7
 10
139.06831810773619
 20
218.0
 30
0.0
 40
1.0
  0
CIRCLE
  5
15A
  8
PATTERN_FILL
  6
CONTINUOUS
 62
     7
 10
139.06831810773619
 20
215.0
 30
0.0
 40
1.0
  0
CIRCLE
  5
15B
  8
PATTERN_FILL
  6
CONTINUOUS
 62
     7
 10
139.06831810773619
 20
212.0
 30
0.0
 40
1.0
  0
CIRCLE
  5
15C
  8
PATTERN_FILL
  6
CONTINUOUS
 62
     7
 10
139.06831810773619
 20
209.0
 30
0.0
 40
1.0
  0
CIRCLE
  5
15D
  8
PATTERN_FILL
  6
CONTINUOUS
 62
     7
 10
139.06831810773619
 20
206.0
 30
0.0
 40
1.0
  0
CIRCLE
  5
15E
  8
PATTERN_FILL
  6
CONTINUOUS
 62
     7
 10
139.06831810773619
 20
203.0
 30
0.0
 40
1.0
  0
CIRCLE
  5
15F
  8
PATTERN_FILL
  6
CONTINUOUS
 62
     7
 10
139.06831810773619
 20
200.0
 30
0.0
 40
1.0
  0
CIRCLE
  5
160
  8
PATTERN_FILL
  6
CONTINUOUS
 62
     7
 10
139.06831810773619
 20
197.0
 30
0.0
 40
1.0
  0
CIRCLE
  5
161
  8
PATTERN_FILL
  6
CONTINUOUS
 62
     7
 10
139.06831810773619
 20
194.0
 30
0.0
 40
1.0
  0
CIRCLE
  5
162
  8
PATTERN_FILL
  6
CONTINUOUS
 62
     7
 10
139.06831810773619
 20
191.0
 30
0.0
 40
1.0
  0
CIRCLE
  5
163
  8
PATTERN_FILL
  6
CONTINUOUS
 62
     7
 10
139.06831810773619
 20
188.0
 30
0.0
 40
1.0
  0
CIRCLE
  5
164
  8
PATTERN_FILL
  6
CONTINUOUS
 62
     7
 10
139.06831810773619
 20
185.0
 30
0.0
 40
1.0
  0
CIRCLE
  5
165
  8
PATTERN_FILL
  6
CONTINUOUS
 62
     7
 10
139.06831810773619
 20
182.0
 30
0.0
 40
1.0
  0
CIRCLE
  5
166
  8
PATTERN_FILL
  6
CONTINUOUS
 62
     7
 10
139.06831810773619
 20
179.0
 30
0.0
 40
1.0
  0
CIRCLE
  5
167
  8
PATTERN_FILL
  6
CONTINUOUS
 62
     7
 10
139.06831810773619
 20
176.0
 30
0.0
 40
1.0
  0
CIRCLE
  5
168
  8
PATTERN_FILL
  6
CONTINUOUS
 62
     7
 10
139.06831810773619
 20
173.0
 30
0.0
 40
1.0
  0
CIRCLE
  5
169
  8
PATTERN_FILL
  6
CONTINUOUS
 62
     7
 10
139.06831810773619
 20
170.0
 30
0.0
 40
1.0
  0
CIRCLE
  5
16A
  8
PATTERN_FILL
  6
CONTINUOUS
 62
     7
 10
139.06831810773619
 20
167.0
 30
0.0
 40
1.0
  0
CIRCLE
  5
16B
  8
PATTERN_FILL
  6
CONTINUOUS
 62
     7
 10
139.06831810773619
 20
164.0
 30
0.0
 40
1.0
  0
CIRCLE
  5
16C
  8
PATTERN_FILL
  6
CONTINUOUS
 62
     7
 10
139.06831810773619
 20
161.0
 30
0.0
 40
1.0
  0
ARC
  5
16D
  8
PATTERN_FILL
  6
CONTINUOUS
 62
     7
 10
139.06831810773619
 20
158.0
 30
0.0
 40
1.0
 50
355.212357483598
 51
199.55118333768519
  0
CIRCLE
  5
16E
  8
PATTERN_FILL
  6
CONTINUOUS
 62
     7
 10
142.0683181077363
 20
218.0
 30
0.0
 40
1.0
  0
CIRCLE
  5
16F
  8
PATTERN_FILL
  6
CONTINUOUS
 62
     7
 10
142.0683181077363
 20
215.0
 30
0.0
 40
1.0
  0
CIRCLE
  5
170
  8
PATTERN_FILL
  6
CONTINUOUS
 62
     7
 10
142.0683181077363
 20
212.0
 30
0.0
 40
1.0
  0
CIRCLE
  5
171
  8
PATTERN_FILL
  6
CONTINUOUS
 62
     7
 10
142.0683181077363
 20
209.0
 30
0.0
 40
1.0
  0
CIRCLE
  5
172
  8
PATTERN_FILL
  6
CONTINUOUS
 62
     7
 10
142.0683181077363
 20
206.0
 30
0.0
 40
1.0
  0
CIRCLE
  5
173
  8
PATTERN_FILL
  6
CONTINUOUS
 62
     7
 10
142.0683181077363
 20
203.0
 30
0.0
 40
1.0
  0
CIRCLE
  5
174
  8
PATTERN_FILL
  6
CONTINUOUS
 62
     7
 10
142.0683181077363
 20
200.0
 30
0.0
 40
1.0
  0
CIRCLE
  5
175
  8
PATTERN_FILL
  6
CONTINUOUS
 62
     7
 10
142.0683181077363
 20
197.0
 30
0.0
 40
1.0
  0
CIRCLE
  5
176
  8
PATTERN_FILL
  6
CONTINUOUS
 62
     7
 10
142.0683181077363
 20
194.0
 30
0.0
 40
1.0
  0
CIRCLE
  5
177
  8
PATTERN_FILL
  6
CONTINUOUS
 62
     7
 10
142.0683181077363
 20
191.0
 30
0.0
 40
1.0
  0
CIRCLE
  5
178
  8
PATTERN_FILL
  6
CONTINUOUS
 62
     7
 10
142.0683181077363
 20
188.0
 30
0.0
 40
1.0
  0
CIRCLE
  5
179
  8
PATTERN_FILL
  6
CONTINUOUS
 62
     7
 10
142.0683181077363
 20
185.0
 30
0.0
 40
1.0
  0
CIRCLE
  5
17A
  8
PATTERN_FILL
  6
CONTINUOUS
 62
     7
 10
142.0683181077363
 20
182.0
 30
0.0
 40
1.0
  0
CIRCLE
  5
17B
  8
PATTERN_FILL
  6
CONTINUOUS
 62
     7
 10
142.0683181077363
 20
179.0
 30
0.0
 40
1.0
  0
CIRCLE
  5
17C
  8
PATTERN_FILL
  6
CONTINUOUS
 62
     7
 10
142.0683181077363
 20
176.0
 30
0.0
 40
1.0
  0
CIRCLE
  5
17D
  8
PATTERN_FILL
  6
CONTINUOUS
 62
     7
 10
142.0683181077363
 20
173.0
 30
0.0
 40
1.0
  0
CIRCLE
  5
17E
  8
PATTERN_FILL
  6
CONTINUOUS
 62
     7
 10
142.0683181077363
 20
170.0
 30
0.0
 40
1.0
  0
CIRCLE
  5
17F
  8
PATTERN_FILL
  6
CONTINUOUS
 62
     7
 10
142.0683181077363
 20
167.0
 30
0.0
 40
1.0
  0
CIRCLE
  5
180
  8
PATTERN_FILL
  6
CONTINUOUS
 62
     7
 10
142.0683181077363
 20
164.0
 30
0.0
 40
1.0
  0
CIRCLE
  5
181
  8
PATTERN_FILL
  6
CONTINUOUS
 62
     7
 10
142.0683181077363
 20
161.0
 30
0.0
 40
1.0
  0
ARC
  5
182
  8
PATTERN_FILL
  6
CONTINUOUS
 62
     7
 10
142.0683181077363
 20
158.0
 30
0.0
 40
0.9999999999999985
 50
12.39070095534715
 51
178.3493619587334
  0
CIRCLE
  5
183
  8
PATTERN_FILL
  6
CONTINUOUS
 62
     7
 10
145.0683181077363
 20
218.0
 30
0.0
 40
1.0
  0
CIRCLE
  5
184
  8
PATTERN_FILL
  6
CONTINUOUS
 62
     7
 10
145.0683181077363
 20
215.0
 30
0.0
 40
1.0
  0
CIRCLE
  5
185
  8
PATTERN_FILL
  6
CONTINUOUS
 62
     7
 10
145.0683181077363
 20
212.0
 30
0.0
 40
1.0
  0
CIRCLE
  5
186
  8
PATTERN_FILL
  6
CONTINUOUS
 62
     7
 10
145.0683181077363
 20
209.0
 30
0.0
 40
1.0
  0
CIRCLE
  5
187
  8
PATTERN_FILL
  6
CONTINUOUS
 62
     7
 10
145.0683181077363
 20
206.0
 30
0.0
 40
1.0
  0
CIRCLE
  5
188
  8
PATTERN_FILL
  6
CONTINUOUS
 62
     7
 10
145.0683181077363
 20
203.0
 30
0.0
 40
1.0
  0
CIRCLE
  5
189
  8
PATTERN_FILL
  6
CONTINUOUS
 62
     7
 10
145.0683181077363
 20
200.0
 30
0.0
 40
1.0
  0
CIRCLE
  5
18A
  8
PATTERN_FILL
  6
CONTINUOUS
 62
     7
 10
145.0683181077363
 20
197.0
 30
0.0
 40
1.0
  0
CIRCLE
  5
18B
  8
PATTERN_FILL
  6
CONTINUOUS
 62
     7
 10
145.0683181077363
 20
194.0
 30
0.0
 40
1.0
  0
CIRCLE
  5
18C
  8
PATTERN_FILL
  6
CONTINUOUS
 62
     7
 10
145.0683181077363
 20
191.0
 30
0.0
 40
1.0
  0
CIRCLE
  5
18D
  8
PATTERN_FILL
  6
CONTINUOUS
 62
     7
 10
145.0683181077363
 20
188.0
 30
0.0
 40
1.0
  0
CIRCLE
  5
18E
  8
PATTERN_FILL
  6
CONTINUOUS
 62
     7
 10
145.0683181077363
 20
185.0
 30
0.0
 40
1.0
  0
CIRCLE
  5
18F
  8
PATTERN_FILL
  6
CONTINUOUS
 62
     7
 10
145.0683181077363
 20
182.0
 30
0.0
 40
1.0
  0
CIRCLE
  5
190
  8
PATTERN_FILL
  6
CONTINUOUS
 62
     7
 10
145.0683181077363
 20
179.0
 30
0.0
 40
1.0
  0
CIRCLE
  5
191
  8
PATTERN_FILL
  6
CONTINUOUS
 62
     7
 10
145.0683181077363
 20
176.0
 30
0.0
 40
1.0
  0
CIRCLE
  5
192
  8
PATTERN_FILL
  6
CONTINUOUS
 62
     7
 10
145.0683181077363
 20
173.0
 30
0.0
 40
1.0
  0
CIRCLE
  5
193
  8
PATTERN_FILL
  6
CONTINUOUS
 62
     7
 10
145.0683181077363
 20
170.0
 30
0.0
 40
1.0
  0
CIRCLE
  5
194
  8
PATTERN_FILL
  6
CONTINUOUS
 62
     7
 10
145.0683181077363
 20
167.0
 30
0.0
 40
1.0
  0
CIRCLE
  5
195
  8
PATTERN_FILL
  6
CONTINUOUS
 62
     7
 10
145.0683181077363
 20
164.0
 30
0.0
 40
1.0
  0
CIRCLE
  5
196
  8
PATTERN_FILL
  6
CONTINUOUS
 62
     7
 10
145.0683181077363
 20
161.0
 30
0.0
 40
1.0
  0
ARC
  5
197
  8
PATTERN_FILL
  6
CONTINUOUS
 62
     7
 10
145.0683181077363
 20
158.0
 30
0.0
 40
0.999999999999998
 50
23.883472616185511
 51
162.80638820425989
  0
CIRCLE
  5
198
  8
PATTERN_FILL
  6
CONTINUOUS
 62
     7
 10
148.0683181077363
 20
218.0
 30
0.0
 40
1.0
  0
CIRCLE
  5
199
  8
PATTERN_FILL
  6
CONTINUOUS
 62
     7
 10
148.0683181077363
 20
215.0
 30
0.0
 40
1.0
  0
CIRCLE
  5
19A
  8
PATTERN_FILL
  6
CONTINUOUS
 62
     7
 10
148.0683181077363
 20
212.0
 30
0.0
 40
1.0
  0
CIRCLE
  5
19B
  8
PATTERN_FILL
  6
CONTINUOUS
 62
     7
 10
148.0683181077363
 20
209.0
 30
0.0
 40
1.0
  0
CIRCLE
  5
19C
  8
PATTERN_FILL
  6
CONTINUOUS
 62
     7
 10
148.0683181077363
 20
206.0
 30
0.0
 40
1.0
  0
CIRCLE
  5
19D
  8
PATTERN_FILL
  6
CONTINUOUS
 62
     7
 10
148.0683181077363
 20
203.0
 30
0.0
 40
1.0
  0
CIRCLE
  5
19E
  8
PATTERN_FILL
  6
CONTINUOUS
 62
     7
 10
148.0683181077363
 20
200.0
 30
0.0
 40
1.0
  0
CIRCLE
  5
19F
  8
PATTERN_FILL
  6
CONTINUOUS
 62
     7
 10
148.0683181077363
 20
197.0
 30
0.0
 40
1.0
  0
CIRCLE
  5
1A0
  8
PATTERN_FILL
  6
CONTINUOUS
 62
     7
 10
148.0683181077363
 20
194.0
 30
0.0
 40
1.0
  0
CIRCLE
  5
1A1
  8
PATTERN_FILL
  6
CONTINUOUS
 62
     7
 10
148.0683181077363
 20
191.0
 30
0.0
 40
1.0
  0
CIRCLE
  5
1A2
  8
PATTERN_FILL
  6
CONTINUOUS
 62
     7
 10
148.0683181077363
 20
188.0
 30
0.0
 40
1.0
  0
CIRCLE
  5
1A3
  8
PATTERN_FILL
  6
CONTINUOUS
 62
     7
 10
148.0683181077363
 20
185.0
 30
0.0
 40
1.0
  0
CIRCLE
  5
1A4
  8
PATTERN_FILL
  6
CONTINUOUS
 62
     7
 10
148.0683181077363
 20
182.0
 30
0.0
 40
1.0
  0
CIRCLE
  5
1A5
  8
PATTERN_FILL
  6
CONTINUOUS
 62
     7
 10
148.0683181077363
 20
179.0
 30
0.0
 40
1.0
  0
CIRCLE
  5
1A6
  8
PATTERN_FILL
  6
CONTINUOUS
 62
     7
 10
148.0683181077363
 20
176.0
 30
0.0
 40
1.0
  0
CIRCLE
  5
1A7
  8
PATTERN_FILL
  6
CONTINUOUS
 62
     7
 10
148.0683181077363
 20
173.0
 30
0.0
 40
1.0
  0
CIRCLE
  5
1A8
  8
PATTERN_FILL
  6
CONTINUOUS
 62
     7
 10
148.0683181077363
 20
170.0
 30
0.0
 40
1.0
  0
CIRCLE
  5
1A9
  8
PATTERN_FILL
  6
CONTINUOUS
 62
     7
 10
148.0683181077363
 20
167.0
 30
0.0
 40
1.0
  0
CIRCLE
  5
1AA
  8
PATTERN_FILL
  6
CONTINUOUS
 62
     7
 10
148.0683181077363
 20
164.0
 30
0.0
 40
1.0
  0
CIRCLE
  5
1AB
  8
PATTERN_FILL
  6
CONTINUOUS
 62
     7
 10
148.0683181077363
 20
161.0
 30
0.0
 40
1.0
  0
ARC
  5
1AC
  8
PATTERN_FILL
  6
CONTINUOUS
 62
     7
 10
148.0683181077363
 20
158.0
 30
0.0
 40
0.9999999999999978
 50
29.561516844520948
 51
153.0613459289327
  0
CIRCLE
  5
1AD
  8
PATTERN_FILL
  6
CONTINUOUS
 62
     7
 10
151.0683181077363
 20
218.0
 30
0.0
 40
1.0
  0
CIRCLE
  5
1AE
  8
PATTERN_FILL
  6
CONTINUOUS
 62
     7
 10
151.0683181077363
 20
215.0
 30
0.0
 40
1.0
  0
CIRCLE
  5
1AF
  8
PATTERN_FILL
  6
CONTINUOUS
 62
     7
 10
151.0683181077363
 20
212.0
 30
0.0
 40
1.0
  0
CIRCLE
  5
1B0
  8
PATTERN_FILL
  6
CONTINUOUS
 62
     7
 10
151.0683181077363
 20
209.0
 30
0.0
 40
1.0
  0
CIRCLE
  5
1B1
  8
PATTERN_FILL
  6
CONTINUOUS
 62
     7
 10
151.0683181077363
 20
206.0
 30
0.0
 40
1.0
  0
CIRCLE
  5
1B2
  8
PATTERN_FILL
  6
CONTINUOUS
 62
     7
 10
151.0683181077363
 20
203.0
 30
0.0
 40
1.0
  0
CIRCLE
  5
1B3
  8
PATTERN_FILL
  6
CONTINUOUS
 62
     7
 10
151.0683181077363
 20
200.0
 30
0.0
 40
1.0
  0
CIRCLE
  5
1B4
  8
PATTERN_FILL
  6
CONTINUOUS
 62
     7
 10
151.0683181077363
 20
197.0
 30
0.0
 40
1.0
  0
CIRCLE
  5
1B5
  8
PATTERN_FILL
  6
CONTINUOUS
 62
     7
 10
151.0683181077363
 20
194.0
 30
0.0
 40
1.0
  0
CIRCLE
  5
1B6
  8
PATTERN_FILL
  6
CONTINUOUS
 62
     7
 10
151.0683181077363
 20
191.0
 30
0.0
 40
1.0
  0
CIRCLE
  5
1B7
  8
PATTERN_FILL
  6
CONTINUOUS
 62
     7
 10
151.0683181077363
 20
188.0
 30
0.0
 40
1.0
  0
CIRCLE
  5
1B8
  8
PATTERN_FILL
  6
CONTINUOUS
 62
     7
 10
151.0683181077363
 20
185.0
 30
0.0
 40
1.0
  0
CIRCLE
  5
1B9
  8
PATTERN_FILL
  6
CONTINUOUS
 62
     7
 10
151.0683181077363
 20
182.0
 30
0.0
 40
1.0
  0
CIRCLE
  5
1BA
  8
PATTERN_FILL
  6
CONTINUOUS
 62
     7
 10
151.0683181077363
 20
179.0
 30
0.0
 40
1.0
  0
CIRCLE
  5
1BB
  8
PATTERN_FILL
  6
CONTINUOUS
 62
     7
 10
151.0683181077363
 20
176.0
 30
0.0
 40
1.0
  0
CIRCLE
  5
1BC
  8
PATTERN_FILL
  6
CONTINUOUS
 62
     7
 10
151.0683181077363
 20
173.0
 30
0.0
 40
1.0
  0
CIRCLE
  5
1BD
  8
PATTERN_FILL
  6
CONTINUOUS
 62
     7
 10
151.0683181077363
 20
170.0
 30
0.0
 40
1.0
  0
CIRCLE
  5
1BE
  8
PATTERN_FILL
  6
CONTINUOUS
 62
     7
 10
151.0683181077363
 20
167.0
 30
0.0
 40
1.0
  0
CIRCLE
  5
1BF
  8
PATTERN_FILL
  6
CONTINUOUS
 62
     7
 10
151.0683181077363
 20
164.0
 30
0.0
 40
1.0
  0
CIRCLE
  5
1C0
  8
PATTERN_FILL
  6
CONTINUOUS
 62
     7
 10
151.0683181077363
 20
161.0
 30
0.0
 40
1.0
  0
ARC
  5
1C1
  8
PATTERN_FILL
  6
CONTINUOUS
 62
     7
 10
151.0683181077363
 20
158.0
 30
0.0
 40
1.0
 50
28.53332259360365
 51
150.01592534161341
  0
CIRCLE
  5
1C2
  8
PATTERN_FILL
  6
CONTINUOUS
 62
     7
 10
154.06831810773619
 20
218.0
 30
0.0
 40
1.0
  0
CIRCLE
  5
1C3
  8
PATTERN_FILL
  6
CONTINUOUS
 62
     7
 10
154.06831810773619
 20
215.0
 30
0.0
 40
1.0
  0
CIRCLE
  5
1C4
  8
PATTERN_FILL
  6
CONTINUOUS
 62
     7
 10
154.06831810773619
 20
212.0
 30
0.0
 40
1.0
  0
CIRCLE
  5
1C5
  8
PATTERN_FILL
  6
CONTINUOUS
 62
     7
 10
154.06831810773619
 20
209.0
 30
0.0
 40
1.0
  0
CIRCLE
  5
1C6
  8
PATTERN_FILL
  6
CONTINUOUS
 62
     7
 10
154.06831810773619
 20
206.0
 30
0.0
 40
1.0
  0
CIRCLE
  5
1C7
  8
PATTERN_FILL
  6
CONTINUOUS
 62
     7
 10
154.06831810773619
 20
203.0
 30
0.0
 40
1.0
  0
CIRCLE
  5
1C8
  8
PATTERN_FILL
  6
CONTINUOUS
 62
     7
 10
154.06831810773619
 20
200.0
 30
0.0
 40
1.0
  0
CIRCLE
  5
1C9
  8
PATTERN_FILL
  6
CONTINUOUS
 62
     7
 10
154.06831810773619
 20
197.0
 30
0.0
 40
1.0
  0
CIRCLE
  5
1CA
  8
PATTERN_FILL
  6
CONTINUOUS
 62
     7
 10
154.06831810773619
 20
194.0
 30
0.0
 40
1.0
  0
CIRCLE
  5
1CB
  8
PATTERN_FILL
  6
CONTINUOUS
 62
     7
 10
154.06831810773619
 20
191.0
 30
0.0
 40
1.0
  0
CIRCLE
  5
1CC
  8
PATTERN_FILL
  6
CONTINUOUS
 62
     7
 10
154.06831810773619
 20
188.0
 30
0.0
 40
1.0
  0
CIRCLE
  5
1CD
  8
PATTERN_FILL
  6
CONTINUOUS
 62
     7
 10
154.06831810773619
 20
185.0
 30
0.0
 40
1.0
  0
CIRCLE
  5
1CE
  8
PATTERN_FILL
  6
CONTINUOUS
 62
     7
 10
154.06831810773619
 20
182.0
 30
0.0
 40
1.0
  0
CIRCLE
  5
1CF
  8
PATTERN_FILL
  6
CONTINUOUS
 62
     7
 10
154.06831810773619
 20
179.0
 30
0.0
 40
1.0
  0
CIRCLE
  5
1D0
  8
PATTERN_FILL
  6
CONTINUOUS
 62
     7
 10
154.06831810773619
 20
176.0
 30
0.0
 40
1.0
  0
CIRCLE
  5
1D1
  8
PATTERN_FILL
  6
CONTINUOUS
 62
     7
 10
154.06831810773619
 20
173.0
 30
0.0
 40
1.0
  0
CIRCLE
  5
1D2
  8
PATTERN_FILL
  6
CONTINUOUS
 62
     7
 10
154.06831810773619
 20
170.0
 30
0.0
 40
1.0
  0
CIRCLE
  5
1D3
  8
PATTERN_FILL
  6
CONTINUOUS
 62
     7
 10
154.06831810773619
 20
167.0
 30
0.0
 40
1.0
  0
CIRCLE
  5
1D4
  8
PATTERN_FILL
  6
CONTINUOUS
 62
     7
 10
154.06831810773619
 20
164.0
 30
0.0
 40
1.0
  0
CIRCLE
  5
1D5
  8
PATTERN_FILL
  6
CONTINUOUS
 62
     7
 10
154.06831810773619
 20
161.0
 30
0.0
 40
1.0
  0
ARC
  5
1D6
  8
PATTERN_FILL
  6
CONTINUOUS
 62
     7
 10
154.06831810773619
 20
158.0
 30
0.0
 40
0.9999999999999985
 50
20.631572392780569
 51
153.8477227830073
  0
CIRCLE
  5
1D7
  8
PATTERN_FILL
  6
CONTINUOUS
 62
     7
 10
157.06831810773619
 20
218.0
 30
0.0
 40
1.0
  0
CIRCLE
  5
1D8
  8
PATTERN_FILL
  6
CONTINUOUS
 62
     7
 10
157.06831810773619
 20
215.0
 30
0.0
 40
1.0
  0
CIRCLE
  5
1D9
  8
PATTERN_FILL
  6
CONTINUOUS
 62
     7
 10
157.06831810773619
 20
212.0
 30
0.0
 40
1.0
  0
CIRCLE
  5
1DA
  8
PATTERN_FILL
  6
CONTINUOUS
 62
     7
 10
157.06831810773619
 20
209.0
 30
0.0
 40
1.0
  0
CIRCLE
  5
1DB
  8
PATTERN_FILL
  6
CONTINUOUS
 62
     7
 10
157.06831810773619
 20
206.0
 30
0.0
 40
1.0
  0
CIRCLE
  5
1DC
  8
PATTERN_FILL
  6
CONTINUOUS
 62
     7
 10
157.06831810773619
 20
203.0
 30
0.0
 40
1.0
  0
CIRCLE
  5
1DD
  8
PATTERN_FILL
  6
CONTINUOUS
 62
     7
 10
157.06831810773619
 20
200.0
 30
0.0
 40
1.0
  0
CIRCLE
  5
1DE
  8
PATTERN_FILL
  6
CONTINUOUS
 62
     7
 10
157.06831810773619
 20
197.0
 30
0.0
 40
1.0
  0
CIRCLE
  5
1DF
  8
PATTERN_FILL
  6
CONTINUOUS
 62
     7
 10
157.06831810773619
 20
194.0
 30
0.0
 40
1.0
  0
CIRCLE
  5
1E0
  8
PATTERN_FILL
  6
CONTINUOUS
 62
     7
 10
157.06831810773619
 20
191.0
 30
0.0
 40
1.0
  0
CIRCLE
  5
1E1
  8
PATTERN_FILL
  6
CONTINUOUS
 62
     7
 10
157.06831810773619
 20
188.0
 30
0.0
 40
1.0
  0
CIRCLE
  5
1E2
  8
PATTERN_FILL
  6
CONTINUOUS
 62
     7
 10
157.06831810773619
 20
185.0
 30
0.0
 40
1.0
  0
CIRCLE
  5
1E3
  8
PATTERN_FILL
  6
CONTINUOUS
 62
     7
 10
157.06831810773619
 20
182.0
 30
0.0
 40
1.0
  0
CIRCLE
  5
1E4
  8
PATTERN_FILL
  6
CONTINUOUS
 62
     7
 10
157.06831810773619
 20
179.0
 30
0.0
 40
1.0
  0
CIRCLE
  5
1E5
  8
PATTERN_FILL
  6
CONTINUOUS
 62
     7
 10
157.06831810773619
 20
176.0
 30
0.0
 40
1.0
  0
CIRCLE
  5
1E6
  8
PATTERN_FILL
  6
CONTINUOUS
 62
     7
 10
157.06831810773619
 20
173.0
 30
0.0
 40
1.0
  0
CIRCLE
  5
1E7
  8
PATTERN_FILL
  6
CONTINUOUS
 62
     7
 10
157.06831810773619
 20
170.0
 30
0.0
 40
1.0
  0
CIRCLE
  5
1E8
  8
PATTERN_FILL
  6
CONTINUOUS
 62
     7
 10
157.06831810773619
 20
167.0
 30
0.0
 40
1.0
  0
CIRCLE
  5
1E9
  8
PATTERN_FILL
  6
CONTINUOUS
 62
     7
 10
157.06831810773619
 20
164.0
 30
0.0
 40
1.0
  0
CIRCLE
  5
1EA
  8
PATTERN_FILL
  6
CONTINUOUS
 62
     7
 10
157.06831810773619
 20
161.0
 30
0.0
 40
1.0
  0
ARC
  5
1EB
  8
PATTERN_FILL
  6
CONTINUOUS
 62
     7
 10
157.06831810773619
 20
158.0
 30
0.0
 40
1.000000000000002
 50
6.6789514020409202
 51
163.74427671980089
  0
ARC
  5
1EC
  8
PATTERN_FILL
  6
CONTINUOUS
 62
     7
 10
160.06831810773619
 20
221.0
 30
0.0
 40
0.9999999999999987
 50
252.1881930028957
 51
301.20652830215289
  0
CIRCLE
  5
1ED
  8
PATTERN_FILL
  6
CONTINUOUS
 62
     7
 10
160.06831810773619
 20
218.0
 30
0.0
 40
1.0
  0
CIRCLE
  5
1EE
  8
PATTERN_FILL
  6
CONTINUOUS
 62
     7
 10
160.06831810773619
 20
215.0
 30
0.0
 40
1.0
  0
CIRCLE
  5
1EF
  8
PATTERN_FILL
  6
CONTINUOUS
 62
     7
 10
160.06831810773619
 20
212.0
 30
0.0
 40
1.0
  0
CIRCLE
  5
1F0
  8
PATTERN_FILL
  6
CONTINUOUS
 62
     7
 10
160.06831810773619
 20
209.0
 30
0.0
 40
1.0
  0
CIRCLE
  5
1F1
  8
PATTERN_FILL
  6
CONTINUOUS
 62
     7
 10
160.06831810773619
 20
206.0
 30
0.0
 40
1.0
  0
CIRCLE
  5
1F2
  8
PATTERN_FILL
  6
CONTINUOUS
 62
     7
 10
160.06831810773619
 20
203.0
 30
0.0
 40
1.0
  0
CIRCLE
  5
1F3
  8
PATTERN_FILL
  6
CONTINUOUS
 62
     7
 10
160.06831810773619
 20
200.0
 30
0.0
 40
1.0
  0
CIRCLE
  5
1F4
  8
PATTERN_FILL
  6
CONTINUOUS
 62
     7
 10
160.06831810773619
 20
197.0
 30
0.0
 40
1.0
  0
CIRCLE
  5
1F5
  8
PATTERN_FILL
  6
CONTINUOUS
 62
     7
 10
160.06831810773619
 20
194.0
 30
0.0
 40
1.0
  0
CIRCLE
  5
1F6
  8
PATTERN_FILL
  6
CONTINUOUS
 62
     7
 10
160.06831810773619
 20
191.0
 30
0.0
 40
1.0
  0
CIRCLE
  5
1F7
  8
PATTERN_FILL
  6
CONTINUOUS
 62
     7
 10
160.06831810773619
 20
188.0
 30
0.0
 40
1.0
  0
CIRCLE
  5
1F8
  8
PATTERN_FILL
  6
CONTINUOUS
 62
     7
 10
160.06831810773619
 20
185.0
 30
0.0
 40
1.0
  0
CIRCLE
  5
1F9
  8
PATTERN_FILL
  6
CONTINUOUS
 62
     7
 10
160.06831810773619
 20
182.0
 30
0.0
 40
1.0
  0
CIRCLE
  5
1FA
  8
PATTERN_FILL
  6
CONTINUOUS
 62
     7
 10
160.06831810773619
 20
179.0
 30
0.0
 40
1.0
  0
CIRCLE
  5
1FB
  8
PATTERN_FILL
  6
CONTINUOUS
 62
     7
 10
160.06831810773619
 20
176.0
 30
0.0
 40
1.0
  0
CIRCLE
  5
1FC
  8
PATTERN_FILL
  6
CONTINUOUS
 62
     7
 10
160.06831810773619
 20
173.0
 30
0.0
 40
1.0
  0
CIRCLE
  5
1FD
  8
PATTERN_FILL
  6
CONTINUOUS
 62
     7
 10
160.06831810773619
 20
170.0
 30
0.0
 40
1.0
  0
CIRCLE
  5
1FE
  8
PATTERN_FILL
  6
CONTINUOUS
 62
     7
 10
160.06831810773619
 20
167.0
 30
0.0
 40
1.0
  0
CIRCLE
  5
1FF
  8
PATTERN_FILL
  6
CONTINUOUS
 62
     7
 10
160.06831810773619
 20
164.0
 30
0.0
 40
1.0
  0
CIRCLE
  5
200
  8
PATTERN_FILL
  6
CONTINUOUS
 62
     7
 10
160.06831810773619
 20
161.0
 30
0.0
 40
1.0
  0
ARC
  5
201
  8
PATTERN_FILL
  6
CONTINUOUS
 62
     7
 10
160.06831810773619
 20
158.0
 30
0.0
 40
1.0
 50
347.20356222253798
 51
179.18750005276121
  0
ARC
  5
202
  8
PATTERN_FILL
  6
CONTINUOUS
 62
     7
 10
163.0683181077363
 20
221.0
 30
0.0
 40
0.9999999999999996
 50
219.03366662660611
 51
338.29843445546533
  0
CIRCLE
  5
203
  8
PATTERN_FILL
  6
CONTINUOUS
 62
     7
 10
163.0683181077363
 20
218.0
 30
0.0
 40
1.0
  0
CIRCLE
  5
204
  8
PATTERN_FILL
  6
CONTINUOUS
 62
     7
 10
163.0683181077363
 20
215.0
 30
0.0
 40
1.0
  0
CIRCLE
  5
205
  8
PATTERN_FILL
  6
CONTINUOUS
 62
     7
 10
163.0683181077363
 20
212.0
 30
0.0
 40
1.0
  0
CIRCLE
  5
206
  8
PATTERN_FILL
  6
CONTINUOUS
 62
     7
 10
163.0683181077363
 20
209.0
 30
0.0
 40
1.0
  0
CIRCLE
  5
207
  8
PATTERN_FILL
  6
CONTINUOUS
 62
     7
 10
163.0683181077363
 20
206.0
 30
0.0
 40
1.0
  0
CIRCLE
  5
208
  8
PATTERN_FILL
  6
CONTINUOUS
 62
     7
 10
163.0683181077363
 20
203.0
 30
0.0
 40
1.0
  0
CIRCLE
  5
209
  8
PATTERN_FILL
  6
CONTINUOUS
 62
     7
 10
163.0683181077363
 20
200.0
 30
0.0
 40
1.0
  0
CIRCLE
  5
20A
  8
PATTERN_FILL
  6
CONTINUOUS
 62
     7
 10
163.0683181077363
 20
197.0
 30
0.0
 40
1.0
  0
CIRCLE
  5
20B
  8
PATTERN_FILL
  6
CONTINUOUS
 62
     7
 10
163.0683181077363
 20
194.0
 30
0.0
 40
1.0
  0
CIRCLE
  5
20C
  8
PATTERN_FILL
  6
CONTINUOUS
 62
     7
 10
163.0683181077363
 20
191.0
 30
0.0
 40
1.0
  0
CIRCLE
  5
20D
  8
PATTERN_FILL
  6
CONTINUOUS
 62
     7
 10
163.0683181077363
 20
188.0
 30
0.0
 40
1.0
  0
CIRCLE
  5
20E
  8
PATTERN_FILL
  6
CONTINUOUS
 62
     7
 10
163.0683181077363
 20
185.0
 30
0.0
 40
1.0
  0
CIRCLE
  5
20F
  8
PATTERN_FILL
  6
CONTINUOUS
 62
     7
 10
163.0683181077363
 20
182.0
 30
0.0
 40
1.0
  0
CIRCLE
  5
210
  8
PATTERN_FILL
  6
CONTINUOUS
 62
     7
 10
163.0683181077363
 20
179.0
 30
0.0
 40
1.0
  0
CIRCLE
  5
211
  8
PATTERN_FILL
  6
CONTINUOUS
 62
     7
 10
163.0683181077363
 20
176.0
 30
0.0
 40
1.0
  0
CIRCLE
  5
212
  8
PATTERN_FILL
  6
CONTINUOUS
 62
     7
 10
163.0683181077363
 20
173.0
 30
0.0
 40
1.0
  0
CIRCLE
  5
213
  8
PATTERN_FILL
  6
CONTINUOUS
 62
     7
 10
163.0683181077363
 20
170.0
 30
0.0
 40
1.0
  0
CIRCLE
  5
214
  8
PATTERN_FILL
  6
CONTINUOUS
 62
     7
 10
163.0683181077363
 20
167.0
 30
0.0
 40
1.0
  0
CIRCLE
  5
215
  8
PATTERN_FILL
  6
CONTINUOUS
 62
     7
 10
163.0683181077363
 20
164.0
 30
0.0
 40
1.0
  0
CIRCLE
  5
216
  8
PATTERN_FILL
  6
CONTINUOUS
 62
     7
 10
163.0683181077363
 20
161.0
 30
0.0
 40
1.0
  0
ARC
  5
217
  8
PATTERN_FILL
  6
CONTINUOUS
 62
     7
 10
163.0683181077363
 20
158.0
 30
0.0
 40
1.0000000000000111
 50
320.50965938738977
 51
201.88280047125301
  0
ARC
  5
218
  8
PATTERN_FILL
  6
CONTINUOUS
 62
     7
 10
166.0683181077363
 20
221.0
 30
0.0
 40
1.000000000000002
 50
190.7075861280544
 51
10.52109779122625
  0
CIRCLE
  5
219
  8
PATTERN_FILL
  6
CONTINUOUS
 62
     7
 10
166.0683181077363
 20
218.0
 30
0.0
 40
1.0
  0
CIRCLE
  5
21A
  8
PATTERN_FILL
  6
CONTINUOUS
 62
     7
 10
166.0683181077363
 20
215.0
 30
0.0
 40
1.0
  0
CIRCLE
  5
21B
  8
PATTERN_FILL
  6
CONTINUOUS
 62
     7
 10
166.0683181077363
 20
212.0
 30
0.0
 40
1.0
  0
CIRCLE
  5
21C
  8
PATTERN_FILL
  6
CONTINUOUS
 62
     7
 10
166.0683181077363
 20
209.0
 30
0.0
 40
1.0
  0
CIRCLE
  5
21D
  8
PATTERN_FILL
  6
CONTINUOUS
 62
     7
 10
166.0683181077363
 20
206.0
 30
0.0
 40
1.0
  0
CIRCLE
  5
21E
  8
PATTERN_FILL
  6
CONTINUOUS
 62
     7
 10
166.0683181077363
 20
203.0
 30
0.0
 40
1.0
  0
CIRCLE
  5
21F
  8
PATTERN_FILL
  6
CONTINUOUS
 62
     7
 10
166.0683181077363
 20
200.0
 30
0.0
 40
1.0
  0
CIRCLE
  5
220
  8
PATTERN_FILL
  6
CONTINUOUS
 62
     7
 10
166.0683181077363
 20
197.0
 30
0.0
 40
1.0
  0
CIRCLE
  5
221
  8
PATTERN_FILL
  6
CONTINUOUS
 62
     7
 10
166.0683181077363
 20
194.0
 30
0.0
 40
1.0
  0
CIRCLE
  5
222
  8
PATTERN_FILL
  6
CONTINUOUS
 62
     7
 10
166.0683181077363
 20
191.0
 30
0.0
 40
1.0
  0
CIRCLE
  5
223
  8
PATTERN_FILL
  6
CONTINUOUS
 62
     7
 10
166.0683181077363
 20
188.0
 30
0.0
 40
1.0
  0
CIRCLE
  5
224
  8
PATTERN_FILL
  6
CONTINUOUS
 62
     7
 10
166.0683181077363
 20
185.0
 30
0.0
 40
1.0
  0
CIRCLE
  5
225
  8
PATTERN_FILL
  6
CONTINUOUS
 62
     7
 10
166.0683181077363
 20
182.0
 30
0.0
 40
1.0
  0
CIRCLE
  5
226
  8
PATTERN_FILL
  6
CONTINUOUS
 62
     7
 10
166.0683181077363
 20
179.0
 30
0.0
 40
1.0
  0
CIRCLE
  5
227
  8
PATTERN_FILL
  6
CONTINUOUS
 62
     7
 10
166.0683181077363
 20
176.0
 30
0.0
 40
1.0
  0
CIRCLE
  5
228
  8
PATTERN_FILL
  6
CONTINUOUS
 62
     7
 10
166.0683181077363
 20
173.0
 30
0.0
 40
1.0
  0
CIRCLE
  5
229
  8
PATTERN_FILL
  6
CONTINUOUS
 62
     7
 10
166.0683181077363
 20
170.0
 30
0.0
 40
1.0
  0
CIRCLE
  5
22A
  8
PATTERN_FILL
  6
CONTINUOUS
 62
     7
 10
166.0683181077363
 20
167.0
 30
0.0
 40
1.0
  0
CIRCLE
  5
22B
  8
PATTERN_FILL
  6
CONTINUOUS
 62
     7
 10
166.0683181077363
 20
164.0
 30
0.0
 40
1.0
  0
CIRCLE
  5
22C
  8
PATTERN_FILL
  6
CONTINUOUS
 62
     7
 10
166.0683181077363
 20
161.0
 30
0.0
 40
1.0
  0
CIRCLE
  5
22D
  8
PATTERN_FILL
  6
CONTINUOUS
 62
     7
 10
166.0683181077363
 20
158.0
 30
0.0
 40
1.0
  0
ARC
  5
22E
  8
PATTERN_FILL
  6
CONTINUOUS
 62
     7
 10
169.06831810773619
 20
221.0
 30
0.0
 40
0.9999999999999996
 50
155.7813273515203
 51
49.29492082286675
  0
CIRCLE
  5
22F
  8
PATTERN_FILL
  6
CONTINUOUS
 62
     7
 10
169.06831810773619
 20
218.0
 30
0.0
 40
1.0
  0
CIRCLE
  5
230
  8
PATTERN_FILL
  6
CONTINUOUS
 62
     7
 10
169.06831810773619
 20
215.0
 30
0.0
 40
1.0
  0
CIRCLE
  5
231
  8
PATTERN_FILL
  6
CONTINUOUS
 62
     7
 10
169.06831810773619
 20
212.0
 30
0.0
 40
1.0
  0
CIRCLE
  5
232
  8
PATTERN_FILL
  6
CONTINUOUS
 62
     7
 10
169.06831810773619
 20
209.0
 30
0.0
 40
1.0
  0
CIRCLE
  5
233
  8
PATTERN_FILL
  6
CONTINUOUS
 62
     7
 10
169.06831810773619
 20
206.0
 30
0.0
 40
1.0
  0
CIRCLE
  5
234
  8
PATTERN_FILL
  6
CONTINUOUS
 62
     7
 10
169.06831810773619
 20
203.0
 30
0.0
 40
1.0
  0
CIRCLE
  5
235
  8
PATTERN_FILL
  6
CONTINUOUS
 62
     7
 10
169.06831810773619
 20
200.0
 30
0.0
 40
1.0
  0
CIRCLE
  5
236
  8
PATTERN_FILL
  6
CONTINUOUS
 62
     7
 10
169.06831810773619
 20
197.0
 30
0.0
 40
1.0
  0
CIRCLE
  5
237
  8
PATTERN_FILL
  6
CONTINUOUS
 62
     7
 10
169.06831810773619
 20
194.0
 30
0.0
 40
1.0
  0
CIRCLE
  5
238
  8
PATTERN_FILL
  6
CONTINUOUS
 62
     7
 10
169.06831810773619
 20
191.0
 30
0.0
 40
1.0
  0
CIRCLE
  5
239
  8
PATTERN_FILL
  6
CONTINUOUS
 62
     7
 10
169.06831810773619
 20
188.0
 30
0.0
 40
1.0
  0
CIRCLE
  5
23A
  8
PATTERN_FILL
  6
CONTINUOUS
 62
     7
 10
169.06831810773619
 20
185.0
 30
0.0
 40
1.0
  0
CIRCLE
  5
23B
  8
PATTERN_FILL
  6
CONTINUOUS
 62
     7
 10
169.06831810773619
 20
182.0
 30
0.0
 40
1.0
  0
CIRCLE
  5
23C
  8
PATTERN_FILL
  6
CONTINUOUS
 62
     7
 10
169.06831810773619
 20
179.0
 30
0.0
 40
1.0
  0
CIRCLE
  5
23D
  8
PATTERN_FILL
  6
CONTINUOUS
 62
     7
 10
169.06831810773619
 20
176.0
 30
0.0
 40
1.0
  0
CIRCLE
  5
23E
  8
PATTERN_FILL
  6
CONTINUOUS
 62
     7
 10
169.06831810773619
 20
173.0
 30
0.0
 40
1.0
  0
CIRCLE
  5
23F
  8
PATTERN_FILL
  6
CONTINUOUS
 62
     7
 10
169.06831810773619
 20
170.0
 30
0.0
 40
1.0
  0
CIRCLE
  5
240
  8
PATTERN_FILL
  6
CONTINUOUS
 62
     7
 10
169.06831810773619
 20
167.0
 30
0.0
 40
1.0
  0
CIRCLE
  5
241
  8
PATTERN_FILL
  6
CONTINUOUS
 62
     7
 10
169.06831810773619
 20
164.0
 30
0.0
 40
1.0
  0
CIRCLE
  5
242
  8
PATTERN_FILL
  6
CONTINUOUS
 62
     7
 10
169.06831810773619
 20
161.0
 30
0.0
 40
1.0
  0
CIRCLE
  5
243
  8
PATTERN_FILL
  6
CONTINUOUS
 62
     7
 10
169.06831810773619
 20
158.0
 30
0.0
 40
1.0
  0
CIRCLE
  5
244
  8
PATTERN_FILL
  6
CONTINUOUS
 62
     7
 10
172.0683181077363
 20
221.0
 30
0.0
 40
1.0
  0
CIRCLE
  5
245
  8
PATTERN_FILL
  6
CONTINUOUS
 62
     7
 10
172.0683181077363
 20
218.0
 30
0.0
 40
1.0
  0
CIRCLE
  5
246
  8
PATTERN_FILL
  6
CONTINUOUS
 62
     7
 10
172.0683181077363
 20
215.0
 30
0.0
 40
1.0
  0
CIRCLE
  5
247
  8
PATTERN_FILL
  6
CONTINUOUS
 62
     7
 10
172.0683181077363
 20
212.0
 30
0.0
 40
1.0
  0
CIRCLE
  5
248
  8
PATTERN_FILL
  6
CONTINUOUS
 62
     7
 10
172.0683181077363
 20
209.0
 30
0.0
 40
1.0
  0
CIRCLE
  5
249
  8
PATTERN_FILL
  6
CONTINUOUS
 62
     7
 10
172.0683181077363
 20
206.0
 30
0.0
 40
1.0
  0
CIRCLE
  5
24A
  8
PATTERN_FILL
  6
CONTINUOUS
 62
     7
 10
172.0683181077363
 20
203.0
 30
0.0
 40
1.0
  0
CIRCLE
  5
24B
  8
PATTERN_FILL
  6
CONTINUOUS
 62
     7
 10
172.0683181077363
 20
200.0
 30
0.0
 40
1.0
  0
CIRCLE
  5
24C
  8
PATTERN_FILL
  6
CONTINUOUS
 62
     7
 10
172.0683181077363
 20
197.0
 30
0.0
 40
1.0
  0
CIRCLE
  5
24D
  8
PATTERN_FILL
  6
CONTINUOUS
 62
     7
 10
172.0683181077363
 20
194.0
 30
0.0
 40
1.0
  0
CIRCLE
  5
24E
  8
PATTERN_FILL
  6
CONTINUOUS
 62
     7
 10
172.0683181077363
 20
191.0
 30
0.0
 40
1.0
  0
CIRCLE
  5
24F
  8
PATTERN_FILL
  6
CONTINUOUS
 62
     7
 10
172.0683181077363
 20
188.0
 30
0.0
 40
1.0
  0
CIRCLE
  5
250
  8
PATTERN_FILL
  6
CONTINUOUS
 62
     7
 10
172.0683181077363
 20
185.0
 30
0.0
 40
1.0
  0
CIRCLE
  5
251
  8
PATTERN_FILL
  6
CONTINUOUS
 62
     7
 10
172.0683181077363
 20
182.0
 30
0.0
 40
1.0
  0
CIRCLE
  5
252
  8
PATTERN_FILL
  6
CONTINUOUS
 62
     7
 10
172.0683181077363
 20
179.0
 30
0.0
 40
1.0
  0
CIRCLE
  5
253
  8
PATTERN_FILL
  6
CONTINUOUS
 62
     7
 10
172.0683181077363
 20
176.0
 30
0.0
 40
1.0
  0
CIRCLE
  5
254
  8
PATTERN_FILL
  6
CONTINUOUS
 62
     7
 10
172.0683181077363
 20
173.0
 30
0.0
 40
1.0
  0
CIRCLE
  5
255
  8
PATTERN_FILL
  6
CONTINUOUS
 62
     7
 10
172.0683181077363
 20
170.0
 30
0.0
 40
1.0
  0
CIRCLE
  5
256
  8
PATTERN_FILL
  6
CONTINUOUS
 62
     7
 10
172.0683181077363
 20
167.0
 30
0.0
 40
1.0
  0
CIRCLE
  5
257
  8
PATTERN_FILL
  6
CONTINUOUS
 62
     7
 10
172.0683181077363
 20
164.0
 30
0.0
 40
1.0
  0
CIRCLE
  5
258
  8
PATTERN_FILL
  6
CONTINUOUS
 62
     7
 10
172.0683181077363
 20
161.0
 30
0.0
 40
1.0
  0
CIRCLE
  5
259
  8
PATTERN_FILL
  6
CONTINUOUS
 62
     7
 10
172.0683181077363
 20
158.0
 30
0.0
 40
1.0
  0
ARC
  5
25A
  8
PATTERN_FILL
  6
CONTINUOUS
 62
     7
 10
172.0683181077363
 20
155.0
 30
0.0
 40
1.0000000000000011
 50
51.566038990869117
 51
120.9356204822497
  0
ARC
  5
25B
  8
PATTERN_FILL
  6
CONTINUOUS
 62
     7
 10
175.0683181077363
 20
224.0
 30
0.0
 40
1.0
 50
248.4522018801558
 51
325.2583903139647
  0
CIRCLE
  5
25C
  8
PATTERN_FILL
  6
CONTINUOUS
 62
     7
 10
175.0683181077363
 20
221.0
 30
0.0
 40
1.0
  0
CIRCLE
  5
25D
  8
PATTERN_FILL
  6
CONTINUOUS
 62
     7
 10
175.0683181077363
 20
218.0
 30
0.0
 40
1.0
  0
CIRCLE
  5
25E
  8
PATTERN_FILL
  6
CONTINUOUS
 62
     7
 10
175.0683181077363
 20
215.0
 30
0.0
 40
1.0
  0
CIRCLE
  5
25F
  8
PATTERN_FILL
  6
CONTINUOUS
 62
     7
 10
175.0683181077363
 20
212.0
 30
0.0
 40
1.0
  0
CIRCLE
  5
260
  8
PATTERN_FILL
  6
CONTINUOUS
 62
     7
 10
175.0683181077363
 20
209.0
 30
0.0
 40
1.0
  0
CIRCLE
  5
261
  8
PATTERN_FILL
  6
CONTINUOUS
 62
     7
 10
175.0683181077363
 20
206.0
 30
0.0
 40
1.0
  0
CIRCLE
  5
262
  8
PATTERN_FILL
  6
CONTINUOUS
 62
     7
 10
175.0683181077363
 20
203.0
 30
0.0
 40
1.0
  0
CIRCLE
  5
263
  8
PATTERN_FILL
  6
CONTINUOUS
 62
     7
 10
175.0683181077363
 20
200.0
 30
0.0
 40
1.0
  0
CIRCLE
  5
264
  8
PATTERN_FILL
  6
CONTINUOUS
 62
     7
 10
175.0683181077363
 20
197.0
 30
0.0
 40
1.0
  0
CIRCLE
  5
265
  8
PATTERN_FILL
  6
CONTINUOUS
 62
     7
 10
175.0683181077363
 20
194.0
 30
0.0
 40
1.0
  0
CIRCLE
  5
266
  8
PATTERN_FILL
  6
CONTINUOUS
 62
     7
 10
175.0683181077363
 20
191.0
 30
0.0
 40
1.0
  0
CIRCLE
  5
267
  8
PATTERN_FILL
  6
CONTINUOUS
 62
     7
 10
175.0683181077363
 20
188.0
 30
0.0
 40
1.0
  0
CIRCLE
  5
268
  8
PATTERN_FILL
  6
CONTINUOUS
 62
     7
 10
175.0683181077363
 20
185.0
 30
0.0
 40
1.0
  0
CIRCLE
  5
269
  8
PATTERN_FILL
  6
CONTINUOUS
 62
     7
 10
175.0683181077363
 20
182.0
 30
0.0
 40
1.0
  0
CIRCLE
  5
26A
  8
PATTERN_FILL
  6
CONTINUOUS
 62
     7
 10
175.0683181077363
 20
179.0
 30
0.0
 40
1.0
  0
CIRCLE
  5
26B
  8
PATTERN_FILL
  6
CONTINUOUS
 62
     7
 10
175.0683181077363
 20
176.0
 30
0.0
 40
1.0
  0
CIRCLE
  5
26C
  8
PATTERN_FILL
  6
CONTINUOUS
 62
     7
 10
175.0683181077363
 20
173.0
 30
0.0
 40
1.0
  0
CIRCLE
  5
26D
  8
PATTERN_FILL
  6
CONTINUOUS
 62
     7
 10
175.0683181077363
 20
170.0
 30
0.0
 40
1.0
  0
CIRCLE
  5
26E
  8
PATTERN_FILL
  6
CONTINUOUS
 62
     7
 10
175.0683181077363
 20
167.0
 30
0.0
 40
1.0
  0
CIRCLE
  5
26F
  8
PATTERN_FILL
  6
CONTINUOUS
 62
     7
 10
175.0683181077363
 20
164.0
 30
0.0
 40
1.0
  0
CIRCLE
  5
270
  8
PATTERN_FILL
  6
CONTINUOUS
 62
     7
 10
175.0683181077363
 20
161.0
 30
0.0
 40
1.0
  0
CIRCLE
  5
271
  8
PATTERN_FILL
  6
CONTINUOUS
 62
     7
 10
175.0683181077363
 20
158.0
 30
0.0
 40
1.0
  0
ARC
  5
272
  8
PATTERN_FILL
  6
CONTINUOUS
 62
     7
 10
175.0683181077363
 20
155.0
 30
0.0
 40
1.0
 50
75.236621794379047
 51
120.41719288593561
  0
ARC
  5
273
  8
PATTERN_FILL
  6
CONTINUOUS
 62
     7
 10
178.06831810773619
 20
224.0
 30
0.0
 40
0.9999999999999987
 50
190.8753749941946
 51
26.601440665162411
  0
CIRCLE
  5
274
  8
PATTERN_FILL
  6
CONTINUOUS
 62
     7
 10
178.06831810773619
 20
221.0
 30
0.0
 40
1.0
  0
CIRCLE
  5
275
  8
PATTERN_FILL
  6
CONTINUOUS
 62
     7
 10
178.06831810773619
 20
218.0
 30
0.0
 40
1.0
  0
CIRCLE
  5
276
  8
PATTERN_FILL
  6
CONTINUOUS
 62
     7
 10
178.06831810773619
 20
215.0
 30
0.0
 40
1.0
  0
CIRCLE
  5
277
  8
PATTERN_FILL
  6
CONTINUOUS
 62
     7
 10
178.06831810773619
 20
212.0
 30
0.0
 40
1.0
  0
CIRCLE
  5
278
  8
PATTERN_FILL
  6
CONTINUOUS
 62
     7
 10
178.06831810773619
 20
209.0
 30
0.0
 40
1.0
  0
CIRCLE
  5
279
  8
PATTERN_FILL
  6
CONTINUOUS
 62
     7
 10
178.06831810773619
 20
206.0
 30
0.0
 40
1.0
  0
CIRCLE
  5
27A
  8
PATTERN_FILL
  6
CONTINUOUS
 62
     7
 10
178.06831810773619
 20
203.0
 30
0.0
 40
1.0
  0
CIRCLE
  5
27B
  8
PATTERN_FILL
  6
CONTINUOUS
 62
     7
 10
178.06831810773619
 20
200.0
 30
0.0
 40
1.0
  0
CIRCLE
  5
27C
  8
PATTERN_FILL
  6
CONTINUOUS
 62
     7
 10
178.06831810773619
 20
197.0
 30
0.0
 40
1.0
  0
CIRCLE
  5
27D
  8
PATTERN_FILL
  6
CONTINUOUS
 62
     7
 10
178.06831810773619
 20
194.0
 30
0.0
 40
1.0
  0
CIRCLE
  5
27E
  8
PATTERN_FILL
  6
CONTINUOUS
 62
     7
 10
178.06831810773619
 20
191.0
 30
0.0
 40
1.0
  0
CIRCLE
  5
27F
  8
PATTERN_FILL
  6
CONTINUOUS
 62
     7
 10
178.06831810773619
 20
188.0
 30
0.0
 40
1.0
  0
CIRCLE
  5
280
  8
PATTERN_FILL
  6
CONTINUOUS
 62
     7
 10
178.06831810773619
 20
185.0
 30
0.0
 40
1.0
  0
CIRCLE
  5
281
  8
PATTERN_FILL
  6
CONTINUOUS
 62
     7
 10
178.06831810773619
 20
182.0
 30
0.0
 40
1.0
  0
CIRCLE
  5
282
  8
PATTERN_FILL
  6
CONTINUOUS
 62
     7
 10
178.06831810773619
 20
179.0
 30
0.0
 40
1.0
  0
CIRCLE
  5
283
  8
PATTERN_FILL
  6
CONTINUOUS
 62
     7
 10
178.06831810773619
 20
176.0
 30
0.0
 40
1.0
  0
CIRCLE
  5
284
  8
PATTERN_FILL
  6
CONTINUOUS
 62
     7
 10
178.06831810773619
 20
173.0
 30
0.0
 40
1.0
  0
CIRCLE
  5
285
  8
PATTERN_FILL
  6
CONTINUOUS
 62
     7
 10
178.06831810773619
 20
170.0
 30
0.0
 40
1.0
  0
CIRCLE
  5
286
  8
PATTERN_FILL
  6
CONTINUOUS
 62
     7
 10
178.06831810773619
 20
167.0
 30
0.0
 40
1.0
  0
CIRCLE
  5
287
  8
PATTERN_FILL
  6
CONTINUOUS
 62
     7
 10
178.06831810773619
 20
164.0
 30
0.0
 40
1.0
  0
CIRCLE
  5
288
  8
PATTERN_FILL
  6
CONTINUOUS
 62
     7
 10
178.06831810773619
 20
161.0
 30
0.0
 40
1.0
  0
CIRCLE
  5
289
  8
PATTERN_FILL
  6
CONTINUOUS
 62
     7
 10
178.06831810773619
 20
158.0
 30
0.0
 40
1.0
  0
CIRCLE
  5
28A
  8
PATTERN_FILL
  6
CONTINUOUS
 62
     7
 10
181.06831810773619
 20
224.0
 30
0.0
 40
1.0
  0
CIRCLE
  5
28B
  8
PATTERN_FILL
  6
CONTINUOUS
 62
     7
 10
181.06831810773619
 20
221.0
 30
0.0
 40
1.0
  0
CIRCLE
  5
28C
  8
PATTERN_FILL
  6
CONTINUOUS
 62
     7
 10
181.06831810773619
 20
218.0
 30
0.0
 40
1.0
  0
CIRCLE
  5
28D
  8
PATTERN_FILL
  6
CONTINUOUS
 62
     7
 10
181.06831810773619
 20
215.0
 30
0.0
 40
1.0
  0
CIRCLE
  5
28E
  8
PATTERN_FILL
  6
CONTINUOUS
 62
     7
 10
181.06831810773619
 20
212.0
 30
0.0
 40
1.0
  0
CIRCLE
  5
28F
  8
PATTERN_FILL
  6
CONTINUOUS
 62
     7
 10
181.06831810773619
 20
209.0
 30
0.0
 40
1.0
  0
CIRCLE
  5
290
  8
PATTERN_FILL
  6
CONTINUOUS
 62
     7
 10
181.06831810773619
 20
206.0
 30
0.0
 40
1.0
  0
CIRCLE
  5
291
  8
PATTERN_FILL
  6
CONTINUOUS
 62
     7
 10
181.06831810773619
 20
203.0
 30
0.0
 40
1.0
  0
CIRCLE
  5
292
  8
PATTERN_FILL
  6
CONTINUOUS
 62
     7
 10
181.06831810773619
 20
200.0
 30
0.0
 40
1.0
  0
CIRCLE
  5
293
  8
PATTERN_FILL
  6
CONTINUOUS
 62
     7
 10
181.06831810773619
 20
197.0
 30
0.0
 40
1.0
  0
CIRCLE
  5
294
  8
PATTERN_FILL
  6
CONTINUOUS
 62
     7
 10
181.06831810773619
 20
194.0
 30
0.0
 40
1.0
  0
CIRCLE
  5
295
  8
PATTERN_FILL
  6
CONTINUOUS
 62
     7
 10
181.06831810773619
 20
191.0
 30
0.0
 40
1.0
  0
CIRCLE
  5
296
  8
PATTERN_FILL
  6
CONTINUOUS
 62
     7
 10
181.06831810773619
 20
188.0
 30
0.0
 40
1.0
  0
CIRCLE
  5
297
  8
PATTERN_FILL
  6
CONTINUOUS
 62
     7
 10
181.06831810773619
 20
185.0
 30
0.0
 40
1.0
  0
CIRCLE
  5
298
  8
PATTERN_FILL
  6
CONTINUOUS
 62
     7
 10
181.06831810773619
 20
182.0
 30
0.0
 40
1.0
  0
CIRCLE
  5
299
  8
PATTERN_FILL
  6
CONTINUOUS
 62
     7
 10
181.06831810773619
 20
179.0
 30
0.0
 40
1.0
  0
CIRCLE
  5
29A
  8
PATTERN_FILL
  6
CONTINUOUS
 62
     7
 10
181.06831810773619
 20
176.0
 30
0.0
 40
1.0
  0
CIRCLE
  5
29B
  8
PATTERN_FILL
  6
CONTINUOUS
 62
     7
 10
181.06831810773619
 20
173.0
 30
0.0
 40
1.0
  0
CIRCLE
  5
29C
  8
PATTERN_FILL
  6
CONTINUOUS
 62
     7
 10
181.06831810773619
 20
170.0
 30
0.0
 40
1.0
  0
CIRCLE
  5
29D
  8
PATTERN_FILL
  6
CONTINUOUS
 62
     7
 10
181.06831810773619
 20
167.0
 30
0.0
 40
1.0
  0
CIRCLE
  5
29E
  8
PATTERN_FILL
  6
CONTINUOUS
 62
     7
 10
181.06831810773619
 20
164.0
 30
0.0
 40
1.0
  0
CIRCLE
  5
29F
  8
PATTERN_FILL
  6
CONTINUOUS
 62
     7
 10
181.06831810773619
 20
161.0
 30
0.0
 40
1.0
  0
ARC
  5
2A0
  8
PATTERN_FILL
  6
CONTINUOUS
 62
     7
 10
181.06831810773619
 20
158.0
 30
0.0
 40
0.9999999999999971
 50
51.036244106474861
 51
197.4671730932904
  0
ARC
  5
2A1
  8
PATTERN_FILL
  6
CONTINUOUS
 62
     7
 10
184.06831810773619
 20
227.0
 30
0.0
 40
1.0
 50
234.67544025949289
 51
349.25175979126618
  0
CIRCLE
  5
2A2
  8
PATTERN_FILL
  6
CONTINUOUS
 62
     7
 10
184.06831810773619
 20
224.0
 30
0.0
 40
1.0
  0
CIRCLE
  5
2A3
  8
PATTERN_FILL
  6
CONTINUOUS
 62
     7
 10
184.06831810773619
 20
221.0
 30
0.0
 40
1.0
  0
CIRCLE
  5
2A4
  8
PATTERN_FILL
  6
CONTINUOUS
 62
     7
 10
184.06831810773619
 20
218.0
 30
0.0
 40
1.0
  0
CIRCLE
  5
2A5
  8
PATTERN_FILL
  6
CONTINUOUS
 62
     7
 10
184.06831810773619
 20
215.0
 30
0.0
 40
1.0
  0
CIRCLE
  5
2A6
  8
PATTERN_FILL
  6
CONTINUOUS
 62
     7
 10
184.06831810773619
 20
212.0
 30
0.0
 40
1.0
  0
CIRCLE
  5
2A7
  8
PATTERN_FILL
  6
CONTINUOUS
 62
     7
 10
184.06831810773619
 20
209.0
 30
0.0
 40
1.0
  0
CIRCLE
  5
2A8
  8
PATTERN_FILL
  6
CONTINUOUS
 62
     7
 10
184.06831810773619
 20
206.0
 30
0.0
 40
1.0
  0
CIRCLE
  5
2A9
  8
PATTERN_FILL
  6
CONTINUOUS
 62
     7
 10
184.06831810773619
 20
203.0
 30
0.0
 40
1.0
  0
CIRCLE
  5
2AA
  8
PATTERN_FILL
  6
CONTINUOUS
 62
     7
 10
184.06831810773619
 20
200.0
 30
0.0
 40
1.0
  0
CIRCLE
  5
2AB
  8
PATTERN_FILL
  6
CONTINUOUS
 62
     7
 10
184.06831810773619
 20
197.0
 30
0.0
 40
1.0
  0
CIRCLE
  5
2AC
  8
PATTERN_FILL
  6
CONTINUOUS
 62
     7
 10
184.06831810773619
 20
194.0
 30
0.0
 40
1.0
  0
CIRCLE
  5
2AD
  8
PATTERN_FILL
  6
CONTINUOUS
 62
     7
 10
184.06831810773619
 20
191.0
 30
0.0
 40
1.0
  0
CIRCLE
  5
2AE
  8
PATTERN_FILL
  6
CONTINUOUS
 62
     7
 10
184.06831810773619
 20
188.0
 30
0.0
 40
1.0
  0
CIRCLE
  5
2AF
  8
PATTERN_FILL
  6
CONTINUOUS
 62
     7
 10
184.06831810773619
 20
185.0
 30
0.0
 40
1.0
  0
CIRCLE
  5
2B0
  8
PATTERN_FILL
  6
CONTINUOUS
 62
     7
 10
184.06831810773619
 20
182.0
 30
0.0
 40
1.0
  0
CIRCLE
  5
2B1
  8
PATTERN_FILL
  6
CONTINUOUS
 62
     7
 10
184.06831810773619
 20
179.0
 30
0.0
 40
1.0
  0
CIRCLE
  5
2B2
  8
PATTERN_FILL
  6
CONTINUOUS
 62
     7
 10
184.06831810773619
 20
176.0
 30
0.0
 40
1.0
  0
CIRCLE
  5
2B3
  8
PATTERN_FILL
  6
CONTINUOUS
 62
     7
 10
184.06831810773619
 20
173.0
 30
0.0
 40
1.0
  0
CIRCLE
  5
2B4
  8
PATTERN_FILL
  6
CONTINUOUS
 62
     7
 10
184.06831810773619
 20
170.0
 30
0.0
 40
1.0
  0
CIRCLE
  5
2B5
  8
PATTERN_FILL
  6
CONTINUOUS
 62
     7
 10
184.06831810773619
 20
167.0
 30
0.0
 40
1.0
  0
CIRCLE
  5
2B6
  8
PATTERN_FILL
  6
CONTINUOUS
 62
     7
 10
184.06831810773619
 20
164.0
 30
0.0
 40
1.0
  0
ARC
  5
2B7
  8
PATTERN_FILL
  6
CONTINUOUS
 62
     7
 10
184.06831810773619
 20
161.0
 30
0.0
 40
1.000000000000002
 50
29.242528881746171
 51
233.03492694513821
  0
ARC
  5
2B8
  8
PATTERN_FILL
  6
CONTINUOUS
 62
     7
 10
187.06831810773619
 20
227.0
 30
0.0
 40
0.9999999999999996
 50
174.27951963340229
 51
19.70811197671577
  0
CIRCLE
  5
2B9
  8
PATTERN_FILL
  6
CONTINUOUS
 62
     7
 10
187.06831810773619
 20
224.0
 30
0.0
 40
1.0
  0
CIRCLE
  5
2BA
  8
PATTERN_FILL
  6
CONTINUOUS
 62
     7
 10
187.06831810773619
 20
221.0
 30
0.0
 40
1.0
  0
CIRCLE
  5
2BB
  8
PATTERN_FILL
  6
CONTINUOUS
 62
     7
 10
187.06831810773619
 20
218.0
 30
0.0
 40
1.0
  0
CIRCLE
  5
2BC
  8
PATTERN_FILL
  6
CONTINUOUS
 62
     7
 10
187.06831810773619
 20
215.0
 30
0.0
 40
1.0
  0
CIRCLE
  5
2BD
  8
PATTERN_FILL
  6
CONTINUOUS
 62
     7
 10
187.06831810773619
 20
212.0
 30
0.0
 40
1.0
  0
CIRCLE
  5
2BE
  8
PATTERN_FILL
  6
CONTINUOUS
 62
     7
 10
187.06831810773619
 20
209.0
 30
0.0
 40
1.0
  0
CIRCLE
  5
2BF
  8
PATTERN_FILL
  6
CONTINUOUS
 62
     7
 10
187.06831810773619
 20
206.0
 30
0.0
 40
1.0
  0
CIRCLE
  5
2C0
  8
PATTERN_FILL
  6
CONTINUOUS
 62
     7
 10
187.06831810773619
 20
203.0
 30
0.0
 40
1.0
  0
CIRCLE
  5
2C1
  8
PATTERN_FILL
  6
CONTINUOUS
 62
     7
 10
187.06831810773619
 20
200.0
 30
0.0
 40
1.0
  0
CIRCLE
  5
2C2
  8
PATTERN_FILL
  6
CONTINUOUS
 62
     7
 10
187.06831810773619
 20
197.0
 30
0.0
 40
1.0
  0
CIRCLE
  5
2C3
  8
PATTERN_FILL
  6
CONTINUOUS
 62
     7
 10
187.06831810773619
 20
194.0
 30
0.0
 40
1.0
  0
CIRCLE
  5
2C4
  8
PATTERN_FILL
  6
CONTINUOUS
 62
     7
 10
187.06831810773619
 20
191.0
 30
0.0
 40
1.0
  0
CIRCLE
  5
2C5
  8
PATTERN_FILL
  6
CONTINUOUS
 62
     7
 10
187.06831810773619
 20
188.0
 30
0.0
 40
1.0
  0
CIRCLE
  5
2C6
  8
PATTERN_FILL
  6
CONTINUOUS
 62
     7
 10
187.06831810773619
 20
185.0
 30
0.0
 40
1.0
  0
CIRCLE
  5
2C7
  8
PATTERN_FILL
  6
CONTINUOUS
 62
     7
 10
187.06831810773619
 20
182.0
 30
0.0
 40
1.0
  0
CIRCLE
  5
2C8
  8
PATTERN_FILL
  6
CONTINUOUS
 62
     7
 10
187.06831810773619
 20
179.0
 30
0.0
 40
1.0
  0
CIRCLE
  5
2C9
  8
PATTERN_FILL
  6
CONTINUOUS
 62
     7
 10
187.06831810773619
 20
176.0
 30
0.0
 40
1.0
  0
CIRCLE
  5
2CA
  8
PATTERN_FILL
  6
CONTINUOUS
 62
     7
 10
187.06831810773619
 20
173.0
 30
0.0
 40
1.0
  0
CIRCLE
  5
2CB
  8
PATTERN_FILL
  6
CONTINUOUS
 62
     7
 10
187.06831810773619
 20
170.0
 30
0.0
 40
1.0
  0
CIRCLE
  5
2CC
  8
PATTERN_FILL
  6
CONTINUOUS
 62
     7
 10
187.06831810773619
 20
167.0
 30
0.0
 40
1.0
  0
ARC
  5
2CD
  8
PATTERN_FILL
  6
CONTINUOUS
 62
     7
 10
187.06831810773619
 20
164.0
 30
0.0
 40
1.0000000000000011
 50
27.25118496453711
 51
244.4241172541029
  0
ARC
  5
2CE
  8
PATTERN_FILL
  6
CONTINUOUS
 62
     7
 10
190.06831810773619
 20
227.0
 30
0.0
 40
0.9999999999999982
 50
162.3635821593445
 51
356.35390386877111
  0
CIRCLE
  5
2CF
  8
PATTERN_FILL
  6
CONTINUOUS
 62
     7
 10
190.06831810773619
 20
224.0
 30
0.0
 40
1.0
  0
CIRCLE
  5
2D0
  8
PATTERN_FILL
  6
CONTINUOUS
 62
     7
 10
190.06831810773619
 20
221.0
 30
0.0
 40
1.0
  0
CIRCLE
  5
2D1
  8
PATTERN_FILL
  6
CONTINUOUS
 62
     7
 10
190.06831810773619
 20
218.0
 30
0.0
 40
1.0
  0
CIRCLE
  5
2D2
  8
PATTERN_FILL
  6
CONTINUOUS
 62
     7
 10
190.06831810773619
 20
215.0
 30
0.0
 40
1.0
  0
CIRCLE
  5
2D3
  8
PATTERN_FILL
  6
CONTINUOUS
 62
     7
 10
190.06831810773619
 20
212.0
 30
0.0
 40
1.0
  0
CIRCLE
  5
2D4
  8
PATTERN_FILL
  6
CONTINUOUS
 62
     7
 10
190.06831810773619
 20
209.0
 30
0.0
 40
1.0
  0
CIRCLE
  5
2D5
  8
PATTERN_FILL
  6
CONTINUOUS
 62
     7
 10
190.06831810773619
 20
206.0
 30
0.0
 40
1.0
  0
CIRCLE
  5
2D6
  8
PATTERN_FILL
  6
CONTINUOUS
 62
     7
 10
190.06831810773619
 20
203.0
 30
0.0
 40
1.0
  0
CIRCLE
  5
2D7
  8
PATTERN_FILL
  6
CONTINUOUS
 62
     7
 10
190.06831810773619
 20
200.0
 30
0.0
 40
1.0
  0
CIRCLE
  5
2D8
  8
PATTERN_FILL
  6
CONTINUOUS
 62
     7
 10
190.06831810773619
 20
197.0
 30
0.0
 40
1.0
  0
CIRCLE
  5
2D9
  8
PATTERN_FILL
  6
CONTINUOUS
 62
     7
 10
190.06831810773619
 20
194.0
 30
0.0
 40
1.0
  0
CIRCLE
  5
2DA
  8
PATTERN_FILL
  6
CONTINUOUS
 62
     7
 10
190.06831810773619
 20
191.0
 30
0.0
 40
1.0
  0
CIRCLE
  5
2DB
  8
PATTERN_FILL
  6
CONTINUOUS
 62
     7
 10
190.06831810773619
 20
188.0
 30
0.0
 40
1.0
  0
CIRCLE
  5
2DC
  8
PATTERN_FILL
  6
CONTINUOUS
 62
     7
 10
190.06831810773619
 20
185.0
 30
0.0
 40
1.0
  0
CIRCLE
  5
2DD
  8
PATTERN_FILL
  6
CONTINUOUS
 62
     7
 10
190.06831810773619
 20
182.0
 30
0.0
 40
1.0
  0
CIRCLE
  5
2DE
  8
PATTERN_FILL
  6
CONTINUOUS
 62
     7
 10
190.06831810773619
 20
179.0
 30
0.0
 40
1.0
  0
CIRCLE
  5
2DF
  8
PATTERN_FILL
  6
CONTINUOUS
 62
     7
 10
190.06831810773619
 20
176.0
 30
0.0
 40
1.0
  0
CIRCLE
  5
2E0
  8
PATTERN_FILL
  6
CONTINUOUS
 62
     7
 10
190.06831810773619
 20
173.0
 30
0.0
 40
1.0
  0
CIRCLE
  5
2E1
  8
PATTERN_FILL
  6
CONTINUOUS
 62
     7
 10
190.06831810773619
 20
170.0
 30
0.0
 40
1.0
  0
ARC
  5
2E2
  8
PATTERN_FILL
  6
CONTINUOUS
 62
     7
 10
190.06831810773619
 20
167.0
 30
0.0
 40
0.999999999999996
 50
45.812449953868388
 51
235.23826520875889
  0
ARC
  5
2E3
  8
PATTERN_FILL
  6
CONTINUOUS
 62
     7
 10
193.0683181077363
 20
227.0
 30
0.0
 40
0.9999999999999985
 50
207.65014431571339
 51
279.36142029604349
  0
CIRCLE
  5
2E4
  8
PATTERN_FILL
  6
CONTINUOUS
 62
     7
 10
193.0683181077363
 20
224.0
 30
0.0
 40
1.0
  0
CIRCLE
  5
2E5
  8
PATTERN_FILL
  6
CONTINUOUS
 62
     7
 10
193.0683181077363
 20
221.0
 30
0.0
 40
1.0
  0
CIRCLE
  5
2E6
  8
PATTERN_FILL
  6
CONTINUOUS
 62
     7
 10
193.0683181077363
 20
218.0
 30
0.0
 40
1.0
  0
CIRCLE
  5
2E7
  8
PATTERN_FILL
  6
CONTINUOUS
 62
     7
 10
193.0683181077363
 20
215.0
 30
0.0
 40
1.0
  0
CIRCLE
  5
2E8
  8
PATTERN_FILL
  6
CONTINUOUS
 62
     7
 10
193.0683181077363
 20
212.0
 30
0.0
 40
1.0
  0
CIRCLE
  5
2E9
  8
PATTERN_FILL
  6
CONTINUOUS
 62
     7
 10
193.0683181077363
 20
209.0
 30
0.0
 40
1.0
  0
CIRCLE
  5
2EA
  8
PATTERN_FILL
  6
CONTINUOUS
 62
     7
 10
193.0683181077363
 20
206.0
 30
0.0
 40
1.0
  0
CIRCLE
  5
2EB
  8
PATTERN_FILL
  6
CONTINUOUS
 62
     7
 10
193.0683181077363
 20
203.0
 30
0.0
 40
1.0
  0
CIRCLE
  5
2EC
  8
PATTERN_FILL
  6
CONTINUOUS
 62
     7
 10
193.0683181077363
 20
200.0
 30
0.0
 40
1.0
  0
CIRCLE
  5
2ED
  8
PATTERN_FILL
  6
CONTINUOUS
 62
     7
 10
193.0683181077363
 20
197.0
 30
0.0
 40
1.0
  0
CIRCLE
  5
2EE
  8
PATTERN_FILL
  6
CONTINUOUS
 62
     7
 10
193.0683181077363
 20
194.0
 30
0.0
 40
1.0
  0
CIRCLE
  5
2EF
  8
PATTERN_FILL
  6
CONTINUOUS
 62
     7
 10
193.0683181077363
 20
191.0
 30
0.0
 40
1.0
  0
CIRCLE
  5
2F0
  8
PATTERN_FILL
  6
CONTINUOUS
 62
     7
 10
193.0683181077363
 20
188.0
 30
0.0
 40
1.0
  0
CIRCLE
  5
2F1
  8
PATTERN_FILL
  6
CONTINUOUS
 62
     7
 10
193.0683181077363
 20
185.0
 30
0.0
 40
1.0
  0
CIRCLE
  5
2F2
  8
PATTERN_FILL
  6
CONTINUOUS
 62
     7
 10
193.0683181077363
 20
182.0
 30
0.0
 40
1.0
  0
CIRCLE
  5
2F3
  8
PATTERN_FILL
  6
CONTINUOUS
 62
     7
 10
193.0683181077363
 20
179.0
 30
0.0
 40
1.0
  0
CIRCLE
  5
2F4
  8
PATTERN_FILL
  6
CONTINUOUS
 62
     7
 10
193.0683181077363
 20
176.0
 30
0.0
 40
1.0
  0
CIRCLE
  5
2F5
  8
PATTERN_FILL
  6
CONTINUOUS
 62
     7
 10
193.0683181077363
 20
173.0
 30
0.0
 40
1.0
  0
ARC
  5
2F6
  8
PATTERN_FILL
  6
CONTINUOUS
 62
     7
 10
193.0683181077363
 20
170.0
 30
0.0
 40
1.0000000000000011
 50
84.758394329258735
 51
205.52195805428471
  0
ARC
  5
2F7
  8
PATTERN_FILL
  6
CONTINUOUS
 62
     7
 10
196.0683181077363
 20
224.0
 30
0.0
 40
1.0
 50
148.6752809200068
 51
292.1989308517098
  0
CIRCLE
  5
2F8
  8
PATTERN_FILL
  6
CONTINUOUS
 62
     7
 10
196.0683181077363
 20
221.0
 30
0.0
 40
1.0
  0
CIRCLE
  5
2F9
  8
PATTERN_FILL
  6
CONTINUOUS
 62
     7
 10
196.0683181077363
 20
218.0
 30
0.0
 40
1.0
  0
CIRCLE
  5
2FA
  8
PATTERN_FILL
  6
CONTINUOUS
 62
     7
 10
196.0683181077363
 20
215.0
 30
0.0
 40
1.0
  0
CIRCLE
  5
2FB
  8
PATTERN_FILL
  6
CONTINUOUS
 62
     7
 10
196.0683181077363
 20
212.0
 30
0.0
 40
1.0
  0
CIRCLE
  5
2FC
  8
PATTERN_FILL
  6
CONTINUOUS
 62
     7
 10
196.0683181077363
 20
209.0
 30
0.0
 40
1.0
  0
CIRCLE
  5
2FD
  8
PATTERN_FILL
  6
CONTINUOUS
 62
     7
 10
196.0683181077363
 20
206.0
 30
0.0
 40
1.0
  0
CIRCLE
  5
2FE
  8
PATTERN_FILL
  6
CONTINUOUS
 62
     7
 10
196.0683181077363
 20
203.0
 30
0.0
 40
1.0
  0
CIRCLE
  5
2FF
  8
PATTERN_FILL
  6
CONTINUOUS
 62
     7
 10
196.0683181077363
 20
200.0
 30
0.0
 40
1.0
  0
CIRCLE
  5
300
  8
PATTERN_FILL
  6
CONTINUOUS
 62
     7
 10
196.0683181077363
 20
197.0
 30
0.0
 40
1.0
  0
CIRCLE
  5
301
  8
PATTERN_FILL
  6
CONTINUOUS
 62
     7
 10
196.0683181077363
 20
194.0
 30
0.0
 40
1.0
  0
CIRCLE
  5
302
  8
PATTERN_FILL
  6
CONTINUOUS
 62
     7
 10
196.0683181077363
 20
191.0
 30
0.0
 40
1.0
  0
CIRCLE
  5
303
  8
PATTERN_FILL
  6
CONTINUOUS
 62
     7
 10
196.0683181077363
 20
188.0
 30
0.0
 40
1.0
  0
CIRCLE
  5
304
  8
PATTERN_FILL
  6
CONTINUOUS
 62
     7
 10
196.0683181077363
 20
185.0
 30
0.0
 40
1.0
  0
CIRCLE
  5
305
  8
PATTERN_FILL
  6
CONTINUOUS
 62
     7
 10
196.0683181077363
 20
182.0
 30
0.0
 40
1.0
  0
CIRCLE
  5
306
  8
PATTERN_FILL
  6
CONTINUOUS
 62
     7
 10
196.0683181077363
 20
179.0
 30
0.0
 40
1.0
  0
ARC
  5
307
  8
PATTERN_FILL
  6
CONTINUOUS
 62
     7
 10
196.0683181077363
 20
176.0
 30
0.0
 40
0.9999999999999971
 50
59.883535927247202
 51
245.08055458045169
  0
ARC
  5
308
  8
PATTERN_FILL
  6
CONTINUOUS
 62
     7
 10
199.0683181077363
 20
218.0
 30
0.0
 40
1.0
 50
126.0804637684314
 51
274.20919413646158
  0
CIRCLE
  5
309
  8
PATTERN_FILL
  6
CONTINUOUS
 62
     7
 10
199.0683181077363
 20
215.0
 30
0.0
 40
1.0
  0
CIRCLE
  5
30A
  8
PATTERN_FILL
  6
CONTINUOUS
 62
     7
 10
199.0683181077363
 20
212.0
 30
0.0
 40
1.0
  0
CIRCLE
  5
30B
  8
PATTERN_FILL
  6
CONTINUOUS
 62
     7
 10
199.0683181077363
 20
209.0
 30
0.0
 40
1.0
  0
CIRCLE
  5
30C
  8
PATTERN_FILL
  6
CONTINUOUS
 62
     7
 10
199.0683181077363
 20
206.0
 30
0.0
 40
1.0
  0
CIRCLE
  5
30D
  8
PATTERN_FILL
  6
CONTINUOUS
 62
     7
 10
199.0683181077363
 20
203.0
 30
0.0
 40
1.0
  0
CIRCLE
  5
30E
  8
PATTERN_FILL
  6
CONTINUOUS
 62
     7
 10
199.0683181077363
 20
200.0
 30
0.0
 40
1.0
  0
CIRCLE
  5
30F
  8
PATTERN_FILL
  6
CONTINUOUS
 62
     7
 10
199.0683181077363
 20
197.0
 30
0.0
 40
1.0
  0
CIRCLE
  5
310
  8
PATTERN_FILL
  6
CONTINUOUS
 62
     7
 10
199.0683181077363
 20
194.0
 30
0.0
 40
1.0
  0
CIRCLE
  5
311
  8
PATTERN_FILL
  6
CONTINUOUS
 62
     7
 10
199.0683181077363
 20
191.0
 30
0.0
 40
1.0
  0
CIRCLE
  5
312
  8
PATTERN_FILL
  6
CONTINUOUS
 62
     7
 10
199.0683181077363
 20
188.0
 30
0.0
 40
1.0
  0
ARC
  5
313
  8
PATTERN_FILL
  6
CONTINUOUS
 62
     7
 10
199.0683181077363
 20
185.0
 30
0.0
 40
0.9999999999999975
 50
29.76184852163928
 51
296.24176158946409
  0
ARC
  5
314
  8
PATTERN_FILL
  6
CONTINUOUS
 62
     7
 10
199.0683181077363
 20
182.0
 30
0.0
 40
1.000000000000002
 50
85.79080586355866
 51
233.91953623154501
  0
ARC
  5
315
  8
PATTERN_FILL
  6
CONTINUOUS
 62
     7
 10
202.0683181077363
 20
209.0
 30
0.0
 40
0.9999999999999975
 50
157.2859250045077
 51
222.32740936335239
  0
ARC
  5
316
  8
PATTERN_FILL
  6
CONTINUOUS
 62
     7
 10
202.0683181077363
 20
206.0
 30
0.0
 40
0.9999999999999985
 50
121.4579306165752
 51
251.68883780041659
  0
ARC
  5
317
  8
PATTERN_FILL
  6
CONTINUOUS
 62
     7
 10
202.0683181077363
 20
203.0
 30
0.0
 40
0.9999999999999939
 50
102.738370977757
 51
263.85671484152181
  0
ARC
  5
318
  8
PATTERN_FILL
  6
CONTINUOUS
 62
     7
 10
202.0683181077363
 20
200.0
 30
0.0
 40
1.000000000000006
 50
94.466491786674467
 51
265.53350821332441
  0
ARC
  5
319
  8
PATTERN_FILL
  6
CONTINUOUS
 62
     7
 10
202.0683181077363
 20
197.0
 30
0.0
 40
1.0
 50
96.143285158480424
 51
257.26162902223882
  0
ARC
  5
31A
  8
PATTERN_FILL
  6
CONTINUOUS
 62
     7
 10
202.0683181077363
 20
194.0
 30
0.0
 40
0.9999999999999971
 50
108.3111621995898
 51
238.5420693834169
  0
ARC
  5
31B
  8
PATTERN_FILL
  6
CONTINUOUS
 62
     7
 10
202.0683181077363
 20
191.0
 30
0.0
 40
0.9999999999999998
 50
137.67259063666401
 51
202.7140749954736
  0
ARC
  5
31C
  8
PATTERN_FILL
  6
CONTINUOUS
 62
     7
 10
133.0
 20
123.26986291886919
 30
0.0
 40
1.000000000000006
 50
239.52316901241571
 51
320.49333204064192
  0
ARC
  5
31D
  8
PATTERN_FILL
  6
CONTINUOUS
 62
     7
 10
136.0
 20
123.26986291886919
 30
0.0
 40
1.0000000000000091
 50
204.9238396098865
 51
351.61427623460111
  0
ARC
  5
31E
  8
PATTERN_FILL
  6
CONTINUOUS
 62
     7
 10
139.0
 20
123.26986291886919
 30
0.0
 40
0.9999999999999905
 50
180.8313534477582
 51
12.197423729365109
  0
ARC
  5
31F
  8
PATTERN_FILL
  6
CONTINUOUS
 62
     7
 10
142.0
 20
123.26986291886919
 30
0.0
 40
1.0000000000000151
 50
161.5332927523182
 51
27.96143611351534
  0
ARC
  5
320
  8
PATTERN_FILL
  6
CONTINUOUS
 62
     7
 10
145.0
 20
123.26986291886919
 30
0.0
 40
0.9999999999999795
 50
146.30530302316339
 51
39.637187269076861
  0
ARC
  5
321
  8
PATTERN_FILL
  6
CONTINUOUS
 62
     7
 10
148.0
 20
123.26986291886919
 30
0.0
 40
0.9999999999999555
 50
136.21428504546901
 51
46.164502392233203
  0
ARC
  5
322
  8
PATTERN_FILL
  6
CONTINUOUS
 62
     7
 10
151.0
 20
123.26986291886909
 30
0.0
 40
1.000000000000046
 50
133.1452694395723
 51
45.66520869162202
  0
ARC
  5
323
  8
PATTERN_FILL
  6
CONTINUOUS
 62
     7
 10
154.0
 20
123.26986291886919
 30
0.0
 40
0.9999999999999818
 50
137.52315807349601
 51
37.721315464311829
  0
ARC
  5
324
  8
PATTERN_FILL
  6
CONTINUOUS
 62
     7
 10
157.0
 20
123.26986291886919
 30
0.0
 40
0.999999999999984
 50
147.67075913423409
 51
24.016898977385839
  0
ARC
  5
325
  8
PATTERN_FILL
  6
CONTINUOUS
 62
     7
 10
160.0
 20
123.26986291886919
 30
0.0
 40
0.9999999999999865
 50
162.09442345339679
 51
6.0523868652889794
  0
ARC
  5
326
  8
PATTERN_FILL
  6
CONTINUOUS
 62
     7
 10
163.0
 20
123.26986291886919
 30
0.0
 40
1.0000000000000011
 50
180.83285920747451
 51
343.7956671872081
  0
ARC
  5
327
  8
PATTERN_FILL
  6
CONTINUOUS
 62
     7
 10
166.0
 20
123.26986291886919
 30
0.0
 40
1.000000000000004
 50
206.93405792726949
 51
314.20509131374013
  0
ARC
  5
328
  8
PATTERN_FILL
  6
CONTINUOUS
 62
     7
 10
121.0
 20
120.26986291886919
 30
0.0
 40
0.9999999999999948
 50
239.665727445935
 51
334.85672999636267
  0
ARC
  5
329
  8
PATTERN_FILL
  6
CONTINUOUS
 62
     7
 10
124.0
 20
120.26986291886919
 30
0.0
 40
1.000000000000012
 50
185.70522069617641
 51
25.428259108974689
  0
CIRCLE
  5
32A
  8
PATTERN_FILL
  6
CONTINUOUS
 62
     7
 10
127.0
 20
120.26986291886919
 30
0.0
 40
1.0
  0
CIRCLE
  5
32B
  8
PATTERN_FILL
  6
CONTINUOUS
 62
     7
 10
130.0
 20
120.26986291886919
 30
0.0
 40
1.0
  0
CIRCLE
  5
32C
  8
PATTERN_FILL
  6
CONTINUOUS
 62
     7
 10
133.0
 20
120.26986291886919
 30
0.0
 40
1.0
  0
CIRCLE
  5
32D
  8
PATTERN_FILL
  6
CONTINUOUS
 62
     7
 10
136.0
 20
120.26986291886919
 30
0.0
 40
1.0
  0
CIRCLE
  5
32E
  8
PATTERN_FILL
  6
CONTINUOUS
 62
     7
 10
139.0
 20
120.26986291886919
 30
0.0
 40
1.0
  0
CIRCLE
  5
32F
  8
PATTERN_FILL
  6
CONTINUOUS
 62
     7
 10
142.0
 20
120.26986291886919
 30
0.0
 40
1.0
  0
CIRCLE
  5
330
  8
PATTERN_FILL
  6
CONTINUOUS
 62
     7
 10
145.0
 20
120.26986291886919
 30
0.0
 40
1.0
  0
CIRCLE
  5
331
  8
PATTERN_FILL
  6
CONTINUOUS
 62
     7
 10
148.0
 20
120.26986291886919
 30
0.0
 40
1.0
  0
CIRCLE
  5
332
  8
PATTERN_FILL
  6
CONTINUOUS
 62
     7
 10
151.0
 20
120.26986291886919
 30
0.0
 40
1.0
  0
CIRCLE
  5
333
  8
PATTERN_FILL
  6
CONTINUOUS
 62
     7
 10
154.0
 20
120.26986291886919
 30
0.0
 40
1.0
  0
CIRCLE
  5
334
  8
PATTERN_FILL
  6
CONTINUOUS
 62
     7
 10
157.0
 20
120.26986291886919
 30
0.0
 40
1.0
  0
CIRCLE
  5
335
  8
PATTERN_FILL
  6
CONTINUOUS
 62
     7
 10
160.0
 20
120.26986291886919
 30
0.0
 40
1.0
  0
CIRCLE
  5
336
  8
PATTERN_FILL
  6
CONTINUOUS
 62
     7
 10
163.0
 20
120.26986291886919
 30
0.0
 40
1.0
  0
CIRCLE
  5
337
  8
PATTERN_FILL
  6
CONTINUOUS
 62
     7
 10
166.0
 20
120.26986291886919
 30
0.0
 40
1.0
  0
CIRCLE
  5
338
  8
PATTERN_FILL
  6
CONTINUOUS
 62
     7
 10
169.0
 20
120.26986291886919
 30
0.0
 40
1.0
  0
CIRCLE
  5
339
  8
PATTERN_FILL
  6
CONTINUOUS
 62
     7
 10
172.0
 20
120.26986291886919
 30
0.0
 40
1.0
  0
ARC
  5
33A
  8
PATTERN_FILL
  6
CONTINUOUS
 62
     7
 10
175.0
 20
120.26986291886919
 30
0.0
 40
1.000000000000002
 50
139.17769554834749
 51
10.83133007128418
  0
ARC
  5
33B
  8
PATTERN_FILL
  6
CONTINUOUS
 62
     7
 10
178.0
 20
120.26986291886919
 30
0.0
 40
0.9999999999999992
 50
185.87545301192779
 51
320.72515977012802
  0
ARC
  5
33C
  8
PATTERN_FILL
  6
CONTINUOUS
 62
     7
 10
112.0
 20
117.26986291886919
 30
0.0
 40
0.9999999999999978
 50
272.52118675288051
 51
313.10951473528559
  0
ARC
  5
33D
  8
PATTERN_FILL
  6
CONTINUOUS
 62
     7
 10
115.0
 20
117.26986291886919
 30
0.0
 40
1.0000000000000111
 50
190.72097161970609
 51
31.638268374175912
  0
CIRCLE
  5
33E
  8
PATTERN_FILL
  6
CONTINUOUS
 62
     7
 10
118.0
 20
117.26986291886919
 30
0.0
 40
1.0
  0
CIRCLE
  5
33F
  8
PATTERN_FILL
  6
CONTINUOUS
 62
     7
 10
121.0
 20
117.26986291886919
 30
0.0
 40
1.0
  0
CIRCLE
  5
340
  8
PATTERN_FILL
  6
CONTINUOUS
 62
     7
 10
124.0
 20
117.26986291886919
 30
0.0
 40
1.0
  0
CIRCLE
  5
341
  8
PATTERN_FILL
  6
CONTINUOUS
 62
     7
 10
127.0
 20
117.26986291886919
 30
0.0
 40
1.0
  0
CIRCLE
  5
342
  8
PATTERN_FILL
  6
CONTINUOUS
 62
     7
 10
130.0
 20
117.26986291886919
 30
0.0
 40
1.0
  0
CIRCLE
  5
343
  8
PATTERN_FILL
  6
CONTINUOUS
 62
     7
 10
133.0
 20
117.26986291886919
 30
0.0
 40
1.0
  0
CIRCLE
  5
344
  8
PATTERN_FILL
  6
CONTINUOUS
 62
     7
 10
136.0
 20
117.26986291886919
 30
0.0
 40
1.0
  0
CIRCLE
  5
345
  8
PATTERN_FILL
  6
CONTINUOUS
 62
     7
 10
139.0
 20
117.26986291886919
 30
0.0
 40
1.0
  0
CIRCLE
  5
346
  8
PATTERN_FILL
  6
CONTINUOUS
 62
     7
 10
142.0
 20
117.26986291886919
 30
0.0
 40
1.0
  0
CIRCLE
  5
347
  8
PATTERN_FILL
  6
CONTINUOUS
 62
     7
 10
145.0
 20
117.26986291886919
 30
0.0
 40
1.0
  0
CIRCLE
  5
348
  8
PATTERN_FILL
  6
CONTINUOUS
 62
     7
 10
148.0
 20
117.26986291886919
 30
0.0
 40
1.0
  0
CIRCLE
  5
349
  8
PATTERN_FILL
  6
CONTINUOUS
 62
     7
 10
151.0
 20
117.26986291886919
 30
0.0
 40
1.0
  0
CIRCLE
  5
34A
  8
PATTERN_FILL
  6
CONTINUOUS
 62
     7
 10
154.0
 20
117.26986291886919
 30
0.0
 40
1.0
  0
CIRCLE
  5
34B
  8
PATTERN_FILL
  6
CONTINUOUS
 62
     7
 10
157.0
 20
117.26986291886919
 30
0.0
 40
1.0
  0
CIRCLE
  5
34C
  8
PATTERN_FILL
  6
CONTINUOUS
 62
     7
 10
160.0
 20
117.26986291886919
 30
0.0
 40
1.0
  0
CIRCLE
  5
34D
  8
PATTERN_FILL
  6
CONTINUOUS
 62
     7
 10
163.0
 20
117.26986291886919
 30
0.0
 40
1.0
  0
CIRCLE
  5
34E
  8
PATTERN_FILL
  6
CONTINUOUS
 62
     7
 10
166.0
 20
117.26986291886919
 30
0.0
 40
1.0
  0
CIRCLE
  5
34F
  8
PATTERN_FILL
  6
CONTINUOUS
 62
     7
 10
169.0
 20
117.26986291886919
 30
0.0
 40
1.0
  0
CIRCLE
  5
350
  8
PATTERN_FILL
  6
CONTINUOUS
 62
     7
 10
172.0
 20
117.26986291886919
 30
0.0
 40
1.0
  0
CIRCLE
  5
351
  8
PATTERN_FILL
  6
CONTINUOUS
 62
     7
 10
175.0
 20
117.26986291886919
 30
0.0
 40
1.0
  0
CIRCLE
  5
352
  8
PATTERN_FILL
  6
CONTINUOUS
 62
     7
 10
178.0
 20
117.26986291886919
 30
0.0
 40
1.0
  0
CIRCLE
  5
353
  8
PATTERN_FILL
  6
CONTINUOUS
 62
     7
 10
181.0
 20
117.26986291886919
 30
0.0
 40
1.0
  0
ARC
  5
354
  8
PATTERN_FILL
  6
CONTINUOUS
 62
     7
 10
184.0
 20
117.26986291886919
 30
0.0
 40
1.0000000000000051
 50
126.71444877759509
 51
12.033393540623351
  0
ARC
  5
355
  8
PATTERN_FILL
  6
CONTINUOUS
 62
     7
 10
187.0
 20
117.26986291886919
 30
0.0
 40
1.000000000000002
 50
191.60496458271561
 51
303.84641889293567
  0
ARC
  5
356
  8
PATTERN_FILL
  6
CONTINUOUS
 62
     7
 10
106.0
 20
114.26986291886919
 30
0.0
 40
0.9999999999999969
 50
253.6585366605153
 51
339.82233139664493
  0
ARC
  5
357
  8
PATTERN_FILL
  6
CONTINUOUS
 62
     7
 10
109.0
 20
114.26986291886919
 30
0.0
 40
0.9999999999999978
 50
169.61027553914809
 51
60.687952385522742
  0
CIRCLE
  5
358
  8
PATTERN_FILL
  6
CONTINUOUS
 62
     7
 10
112.0
 20
114.26986291886919
 30
0.0
 40
1.0
  0
CIRCLE
  5
359
  8
PATTERN_FILL
  6
CONTINUOUS
 62
     7
 10
115.0
 20
114.26986291886919
 30
0.0
 40
1.0
  0
CIRCLE
  5
35A
  8
PATTERN_FILL
  6
CONTINUOUS
 62
     7
 10
118.0
 20
114.26986291886919
 30
0.0
 40
1.0
  0
CIRCLE
  5
35B
  8
PATTERN_FILL
  6
CONTINUOUS
 62
     7
 10
121.0
 20
114.26986291886919
 30
0.0
 40
1.0
  0
CIRCLE
  5
35C
  8
PATTERN_FILL
  6
CONTINUOUS
 62
     7
 10
124.0
 20
114.26986291886919
 30
0.0
 40
1.0
  0
CIRCLE
  5
35D
  8
PATTERN_FILL
  6
CONTINUOUS
 62
     7
 10
127.0
 20
114.26986291886919
 30
0.0
 40
1.0
  0
CIRCLE
  5
35E
  8
PATTERN_FILL
  6
CONTINUOUS
 62
     7
 10
130.0
 20
114.26986291886919
 30
0.0
 40
1.0
  0
CIRCLE
  5
35F
  8
PATTERN_FILL
  6
CONTINUOUS
 62
     7
 10
133.0
 20
114.26986291886919
 30
0.0
 40
1.0
  0
CIRCLE
  5
360
  8
PATTERN_FILL
  6
CONTINUOUS
 62
     7
 10
136.0
 20
114.26986291886919
 30
0.0
 40
1.0
  0
CIRCLE
  5
361
  8
PATTERN_FILL
  6
CONTINUOUS
 62
     7
 10
139.0
 20
114.26986291886919
 30
0.0
 40
1.0
  0
CIRCLE
  5
362
  8
PATTERN_FILL
  6
CONTINUOUS
 62
     7
 10
142.0
 20
114.26986291886919
 30
0.0
 40
1.0
  0
CIRCLE
  5
363
  8
PATTERN_FILL
  6
CONTINUOUS
 62
     7
 10
145.0
 20
114.26986291886919
 30
0.0
 40
1.0
  0
CIRCLE
  5
364
  8
PATTERN_FILL
  6
CONTINUOUS
 62
     7
 10
148.0
 20
114.26986291886919
 30
0.0
 40
1.0
  0
CIRCLE
  5
365
  8
PATTERN_FILL
  6
CONTINUOUS
 62
     7
 10
151.0
 20
114.26986291886919
 30
0.0
 40
1.0
  0
CIRCLE
  5
366
  8
PATTERN_FILL
  6
CONTINUOUS
 62
     7
 10
154.0
 20
114.26986291886919
 30
0.0
 40
1.0
  0
CIRCLE
  5
367
  8
PATTERN_FILL
  6
CONTINUOUS
 62
     7
 10
157.0
 20
114.26986291886919
 30
0.0
 40
1.0
  0
CIRCLE
  5
368
  8
PATTERN_FILL
  6
CONTINUOUS
 62
     7
 10
160.0
 20
114.26986291886919
 30
0.0
 40
1.0
  0
CIRCLE
  5
369
  8
PATTERN_FILL
  6
CONTINUOUS
 62
     7
 10
163.0
 20
114.26986291886919
 30
0.0
 40
1.0
  0
CIRCLE
  5
36A
  8
PATTERN_FILL
  6
CONTINUOUS
 62
     7
 10
166.0
 20
114.26986291886919
 30
0.0
 40
1.0
  0
CIRCLE
  5
36B
  8
PATTERN_FILL
  6
CONTINUOUS
 62
     7
 10
169.0
 20
114.26986291886919
 30
0.0
 40
1.0
  0
CIRCLE
  5
36C
  8
PATTERN_FILL
  6
CONTINUOUS
 62
     7
 10
172.0
 20
114.26986291886919
 30
0.0
 40
1.0
  0
CIRCLE
  5
36D
  8
PATTERN_FILL
  6
CONTINUOUS
 62
     7
 10
175.0
 20
114.26986291886919
 30
0.0
 40
1.0
  0
CIRCLE
  5
36E
  8
PATTERN_FILL
  6
CONTINUOUS
 62
     7
 10
178.0
 20
114.26986291886919
 30
0.0
 40
1.0
  0
CIRCLE
  5
36F
  8
PATTERN_FILL
  6
CONTINUOUS
 62
     7
 10
181.0
 20
114.26986291886919
 30
0.0
 40
1.0
  0
CIRCLE
  5
370
  8
PATTERN_FILL
  6
CONTINUOUS
 62
     7
 10
184.0
 20
114.26986291886919
 30
0.0
 40
1.0
  0
CIRCLE
  5
371
  8
PATTERN_FILL
  6
CONTINUOUS
 62
     7
 10
187.0
 20
114.26986291886919
 30
0.0
 40
1.0
  0
CIRCLE
  5
372
  8
PATTERN_FILL
  6
CONTINUOUS
 62
     7
 10
190.0
 20
114.26986291886919
 30
0.0
 40
1.0
  0
ARC
  5
373
  8
PATTERN_FILL
  6
CONTINUOUS
 62
     7
 10
193.0
 20
114.26986291886919
 30
0.0
 40
1.0000000000000011
 50
170.45466728585939
 51
317.1157776981662
  0
ARC
  5
374
  8
PATTERN_FILL
  6
CONTINUOUS
 62
     7
 10
103.0
 20
111.26986291886919
 30
0.0
 40
1.0000000000000271
 50
178.23905995425741
 51
60.025395937738111
  0
CIRCLE
  5
375
  8
PATTERN_FILL
  6
CONTINUOUS
 62
     7
 10
106.0
 20
111.26986291886919
 30
0.0
 40
1.0
  0
CIRCLE
  5
376
  8
PATTERN_FILL
  6
CONTINUOUS
 62
     7
 10
109.0
 20
111.26986291886919
 30
0.0
 40
1.0
  0
CIRCLE
  5
377
  8
PATTERN_FILL
  6
CONTINUOUS
 62
     7
 10
112.0
 20
111.26986291886919
 30
0.0
 40
1.0
  0
CIRCLE
  5
378
  8
PATTERN_FILL
  6
CONTINUOUS
 62
     7
 10
115.0
 20
111.26986291886919
 30
0.0
 40
1.0
  0
CIRCLE
  5
379
  8
PATTERN_FILL
  6
CONTINUOUS
 62
     7
 10
118.0
 20
111.26986291886919
 30
0.0
 40
1.0
  0
CIRCLE
  5
37A
  8
PATTERN_FILL
  6
CONTINUOUS
 62
     7
 10
121.0
 20
111.26986291886919
 30
0.0
 40
1.0
  0
CIRCLE
  5
37B
  8
PATTERN_FILL
  6
CONTINUOUS
 62
     7
 10
124.0
 20
111.26986291886919
 30
0.0
 40
1.0
  0
CIRCLE
  5
37C
  8
PATTERN_FILL
  6
CONTINUOUS
 62
     7
 10
127.0
 20
111.26986291886919
 30
0.0
 40
1.0
  0
CIRCLE
  5
37D
  8
PATTERN_FILL
  6
CONTINUOUS
 62
     7
 10
130.0
 20
111.26986291886919
 30
0.0
 40
1.0
  0
CIRCLE
  5
37E
  8
PATTERN_FILL
  6
CONTINUOUS
 62
     7
 10
133.0
 20
111.26986291886919
 30
0.0
 40
1.0
  0
CIRCLE
  5
37F
  8
PATTERN_FILL
  6
CONTINUOUS
 62
     7
 10
136.0
 20
111.26986291886919
 30
0.0
 40
1.0
  0
CIRCLE
  5
380
  8
PATTERN_FILL
  6
CONTINUOUS
 62
     7
 10
139.0
 20
111.26986291886919
 30
0.0
 40
1.0
  0
CIRCLE
  5
381
  8
PATTERN_FILL
  6
CONTINUOUS
 62
     7
 10
142.0
 20
111.26986291886919
 30
0.0
 40
1.0
  0
CIRCLE
  5
382
  8
PATTERN_FILL
  6
CONTINUOUS
 62
     7
 10
145.0
 20
111.26986291886919
 30
0.0
 40
1.0
  0
CIRCLE
  5
383
  8
PATTERN_FILL
  6
CONTINUOUS
 62
     7
 10
148.0
 20
111.26986291886919
 30
0.0
 40
1.0
  0
CIRCLE
  5
384
  8
PATTERN_FILL
  6
CONTINUOUS
 62
     7
 10
151.0
 20
111.26986291886919
 30
0.0
 40
1.0
  0
CIRCLE
  5
385
  8
PATTERN_FILL
  6
CONTINUOUS
 62
     7
 10
154.0
 20
111.26986291886919
 30
0.0
 40
1.0
  0
CIRCLE
  5
386
  8
PATTERN_FILL
  6
CONTINUOUS
 62
     7
 10
157.0
 20
111.26986291886919
 30
0.0
 40
1.0
  0
CIRCLE
  5
387
  8
PATTERN_FILL
  6
CONTINUOUS
 62
     7
 10
160.0
 20
111.26986291886919
 30
0.0
 40
1.0
  0
CIRCLE
  5
388
  8
PATTERN_FILL
  6
CONTINUOUS
 62
     7
 10
163.0
 20
111.26986291886919
 30
0.0
 40
1.0
  0
CIRCLE
  5
389
  8
PATTERN_FILL
  6
CONTINUOUS
 62
     7
 10
166.0
 20
111.26986291886919
 30
0.0
 40
1.0
  0
CIRCLE
  5
38A
  8
PATTERN_FILL
  6
CONTINUOUS
 62
     7
 10
169.0
 20
111.26986291886919
 30
0.0
 40
1.0
  0
CIRCLE
  5
38B
  8
PATTERN_FILL
  6
CONTINUOUS
 62
     7
 10
172.0
 20
111.26986291886919
 30
0.0
 40
1.0
  0
CIRCLE
  5
38C
  8
PATTERN_FILL
  6
CONTINUOUS
 62
     7
 10
175.0
 20
111.26986291886919
 30
0.0
 40
1.0
  0
CIRCLE
  5
38D
  8
PATTERN_FILL
  6
CONTINUOUS
 62
     7
 10
178.0
 20
111.26986291886919
 30
0.0
 40
1.0
  0
CIRCLE
  5
38E
  8
PATTERN_FILL
  6
CONTINUOUS
 62
     7
 10
181.0
 20
111.26986291886919
 30
0.0
 40
1.0
  0
CIRCLE
  5
38F
  8
PATTERN_FILL
  6
CONTINUOUS
 62
     7
 10
184.0
 20
111.26986291886919
 30
0.0
 40
1.0
  0
CIRCLE
  5
390
  8
PATTERN_FILL
  6
CONTINUOUS
 62
     7
 10
187.0
 20
111.26986291886919
 30
0.0
 40
1.0
  0
CIRCLE
  5
391
  8
PATTERN_FILL
  6
CONTINUOUS
 62
     7
 10
190.0
 20
111.26986291886919
 30
0.0
 40
1.0
  0
CIRCLE
  5
392
  8
PATTERN_FILL
  6
CONTINUOUS
 62
     7
 10
193.0
 20
111.26986291886919
 30
0.0
 40
1.0
  0
CIRCLE
  5
393
  8
PATTERN_FILL
  6
CONTINUOUS
 62
     7
 10
196.0
 20
111.26986291886919
 30
0.0
 40
1.0
  0
ARC
  5
394
  8
PATTERN_FILL
  6
CONTINUOUS
 62
     7
 10
199.0
 20
111.26986291886919
 30
0.0
 40
1.0
 50
178.26934063388541
 51
301.4135436494966
  0
ARC
  5
395
  8
PATTERN_FILL
  6
CONTINUOUS
 62
     7
 10
97.0
 20
108.26986291886919
 30
0.0
 40
0.9999999999999966
 50
223.31867119380689
 51
22.19430674867251
  0
CIRCLE
  5
396
  8
PATTERN_FILL
  6
CONTINUOUS
 62
     7
 10
100.0
 20
108.26986291886919
 30
0.0
 40
1.0
  0
CIRCLE
  5
397
  8
PATTERN_FILL
  6
CONTINUOUS
 62
     7
 10
103.0
 20
108.26986291886919
 30
0.0
 40
1.0
  0
CIRCLE
  5
398
  8
PATTERN_FILL
  6
CONTINUOUS
 62
     7
 10
106.0
 20
108.26986291886919
 30
0.0
 40
1.0
  0
CIRCLE
  5
399
  8
PATTERN_FILL
  6
CONTINUOUS
 62
     7
 10
109.0
 20
108.26986291886919
 30
0.0
 40
1.0
  0
CIRCLE
  5
39A
  8
PATTERN_FILL
  6
CONTINUOUS
 62
     7
 10
112.0
 20
108.26986291886919
 30
0.0
 40
1.0
  0
CIRCLE
  5
39B
  8
PATTERN_FILL
  6
CONTINUOUS
 62
     7
 10
115.0
 20
108.26986291886919
 30
0.0
 40
1.0
  0
CIRCLE
  5
39C
  8
PATTERN_FILL
  6
CONTINUOUS
 62
     7
 10
118.0
 20
108.26986291886919
 30
0.0
 40
1.0
  0
CIRCLE
  5
39D
  8
PATTERN_FILL
  6
CONTINUOUS
 62
     7
 10
121.0
 20
108.26986291886919
 30
0.0
 40
1.0
  0
CIRCLE
  5
39E
  8
PATTERN_FILL
  6
CONTINUOUS
 62
     7
 10
124.0
 20
108.26986291886919
 30
0.0
 40
1.0
  0
CIRCLE
  5
39F
  8
PATTERN_FILL
  6
CONTINUOUS
 62
     7
 10
127.0
 20
108.26986291886919
 30
0.0
 40
1.0
  0
ARC
  5
3A0
  8
PATTERN_FILL
  6
CONTINUOUS
 62
     7
 10
130.0
 20
108.26986291886919
 30
0.0
 40
0.9999999999999992
 50
322.27652628209609
 51
250.00392712380511
  0
ARC
  5
3A1
  8
PATTERN_FILL
  6
CONTINUOUS
 62
     7
 10
133.0
 20
108.26986291886919
 30
0.0
 40
0.9999999999999952
 50
11.72263021635815
 51
195.91659198467499
  0
ARC
  5
3A2
  8
PATTERN_FILL
  6
CONTINUOUS
 62
     7
 10
136.0
 20
108.26986291886919
 30
0.0
 40
1.0000000000000031
 50
49.952142613503099
 51
152.9515402809771
  0
ARC
  5
3A3
  8
PATTERN_FILL
  6
CONTINUOUS
 62
     7
 10
163.0
 20
108.26986291886919
 30
0.0
 40
1.0000000000000031
 50
44.052047081101684
 51
114.6414177354206
  0
ARC
  5
3A4
  8
PATTERN_FILL
  6
CONTINUOUS
 62
     7
 10
166.0
 20
108.26986291886919
 30
0.0
 40
0.9999999999999982
 50
358.26135856494341
 51
155.66809591581699
  0
ARC
  5
3A5
  8
PATTERN_FILL
  6
CONTINUOUS
 62
     7
 10
169.0
 20
108.26986291886919
 30
0.0
 40
1.0000000000000151
 50
312.03862123213821
 51
197.21674854631109
  0
CIRCLE
  5
3A6
  8
PATTERN_FILL
  6
CONTINUOUS
 62
     7
 10
172.0
 20
108.26986291886919
 30
0.0
 40
1.0
  0
CIRCLE
  5
3A7
  8
PATTERN_FILL
  6
CONTINUOUS
 62
     7
 10
175.0
 20
108.26986291886919
 30
0.0
 40
1.0
  0
CIRCLE
  5
3A8
  8
PATTERN_FILL
  6
CONTINUOUS
 62
     7
 10
178.0
 20
108.26986291886919
 30
0.0
 40
1.0
  0
CIRCLE
  5
3A9
  8
PATTERN_FILL
  6
CONTINUOUS
 62
     7
 10
181.0
 20
108.26986291886919
 30
0.0
 40
1.0
  0
CIRCLE
  5
3AA
  8
PATTERN_FILL
  6
CONTINUOUS
 62
     7
 10
184.0
 20
108.26986291886919
 30
0.0
 40
1.0
  0
CIRCLE
  5
3AB
  8
PATTERN_FILL
  6
CONTINUOUS
 62
     7
 10
187.0
 20
108.26986291886919
 30
0.0
 40
1.0
  0
CIRCLE
  5
3AC
  8
PATTERN_FILL
  6
CONTINUOUS
 62
     7
 10
190.0
 20
108.26986291886919
 30
0.0
 40
1.0
  0
CIRCLE
  5
3AD
  8
PATTERN_FILL
  6
CONTINUOUS
 62
     7
 10
193.0
 20
108.26986291886919
 30
0.0
 40
1.0
  0
CIRCLE
  5
3AE
  8
PATTERN_FILL
  6
CONTINUOUS
 62
     7
 10
196.0
 20
108.26986291886919
 30
0.0
 40
1.0
  0
CIRCLE
  5
3AF
  8
PATTERN_FILL
  6
CONTINUOUS
 62
     7
 10
199.0
 20
108.26986291886919
 30
0.0
 40
1.0
  0
ARC
  5
3B0
  8
PATTERN_FILL
  6
CONTINUOUS
 62
     7
 10
202.0
 20
108.26986291886919
 30
0.0
 40
1.0000000000000091
 50
115.8210875377992
 51
348.2066456849667
  0
ARC
  5
3B1
  8
PATTERN_FILL
  6
CONTINUOUS
 62
     7
 10
94.0
 20
105.26986291886919
 30
0.0
 40
1.0000000000000031
 50
7.8752947576675307
 51
78.516309487030199
  0
ARC
  5
3B2
  8
PATTERN_FILL
  6
CONTINUOUS
 62
     7
 10
97.0
 20
105.26986291886919
 30
0.0
 40
1.0000000000000031
 50
7.8752947576675307
 51
172.1247052423324
  0
ARC
  5
3B3
  8
PATTERN_FILL
  6
CONTINUOUS
 62
     7
 10
100.0
 20
105.26986291886919
 30
0.0
 40
1.0000000000000031
 50
7.8752947576675307
 51
172.1247052423324
  0
ARC
  5
3B4
  8
PATTERN_FILL
  6
CONTINUOUS
 62
     7
 10
103.0
 20
105.26986291886919
 30
0.0
 40
1.0000000000000031
 50
7.8752947576675307
 51
172.1247052423324
  0
ARC
  5
3B5
  8
PATTERN_FILL
  6
CONTINUOUS
 62
     7
 10
106.0
 20
105.26986291886919
 30
0.0
 40
1.0000000000000031
 50
7.8752947576675307
 51
172.1247052423324
  0
ARC
  5
3B6
  8
PATTERN_FILL
  6
CONTINUOUS
 62
     7
 10
109.0
 20
105.26986291886919
 30
0.0
 40
1.0000000000000031
 50
7.8752947576675307
 51
172.1247052423324
  0
ARC
  5
3B7
  8
PATTERN_FILL
  6
CONTINUOUS
 62
     7
 10
112.0
 20
105.26986291886919
 30
0.0
 40
1.0000000000000031
 50
7.8752947576675307
 51
172.1247052423324
  0
ARC
  5
3B8
  8
PATTERN_FILL
  6
CONTINUOUS
 62
     7
 10
115.0
 20
105.26986291886919
 30
0.0
 40
1.0000000000000031
 50
7.8752947576675307
 51
172.1247052423324
  0
ARC
  5
3B9
  8
PATTERN_FILL
  6
CONTINUOUS
 62
     7
 10
118.0
 20
105.26986291886919
 30
0.0
 40
1.0000000000000031
 50
7.8752947576675307
 51
172.1247052423324
  0
ARC
  5
3BA
  8
PATTERN_FILL
  6
CONTINUOUS
 62
     7
 10
121.0
 20
105.26986291886919
 30
0.0
 40
1.0000000000000031
 50
7.8752947576675307
 51
172.1247052423324
  0
ARC
  5
3BB
  8
PATTERN_FILL
  6
CONTINUOUS
 62
     7
 10
124.0
 20
105.26986291886919
 30
0.0
 40
1.000000000000004
 50
29.192828609751551
 51
170.4208295617812
  0
ARC
  5
3BC
  8
PATTERN_FILL
  6
CONTINUOUS
 62
     7
 10
175.0
 20
105.26986291886919
 30
0.0
 40
0.9999999999999965
 50
17.459852515561341
 51
132.16077488847381
  0
ARC
  5
3BD
  8
PATTERN_FILL
  6
CONTINUOUS
 62
     7
 10
178.0
 20
105.26986291886919
 30
0.0
 40
1.0
 50
7.8752947576675583
 51
170.541543094459
  0
ARC
  5
3BE
  8
PATTERN_FILL
  6
CONTINUOUS
 62
     7
 10
181.0
 20
105.26986291886919
 30
0.0
 40
1.0
 50
7.8752947576675583
 51
172.1247052423324
  0
ARC
  5
3BF
  8
PATTERN_FILL
  6
CONTINUOUS
 62
     7
 10
184.0
 20
105.26986291886919
 30
0.0
 40
1.0
 50
7.8752947576675583
 51
172.1247052423324
  0
ARC
  5
3C0
  8
PATTERN_FILL
  6
CONTINUOUS
 62
     7
 10
187.0
 20
105.26986291886919
 30
0.0
 40
1.0
 50
7.8752947576675583
 51
172.1247052423324
  0
ARC
  5
3C1
  8
PATTERN_FILL
  6
CONTINUOUS
 62
     7
 10
190.0
 20
105.26986291886919
 30
0.0
 40
1.0
 50
7.8752947576675583
 51
172.1247052423324
  0
ARC
  5
3C2
  8
PATTERN_FILL
  6
CONTINUOUS
 62
     7
 10
193.0
 20
105.26986291886919
 30
0.0
 40
1.0000000000000011
 50
7.875294757667552
 51
172.1247052423324
  0
ARC
  5
3C3
  8
PATTERN_FILL
  6
CONTINUOUS
 62
     7
 10
196.0
 20
105.26986291886919
 30
0.0
 40
1.0
 50
7.8752947576675547
 51
172.1247052423324
  0
ARC
  5
3C4
  8
PATTERN_FILL
  6
CONTINUOUS
 62
     7
 10
199.0
 20
105.26986291886919
 30
0.0
 40
1.0000000000000011
 50
7.8752947576675547
 51
172.1247052423324
  0
ARC
  5
3C5
  8
PATTERN_FILL
  6
CONTINUOUS
 62
     7
 10
202.0
 20
105.26986291886919
 30
0.0
 40
1.0
 50
7.8752947576675547
 51
172.1247052423324
  0
ARC
  5
3C6
  8
PATTERN_FILL
  6
CONTINUOUS
 62
     7
 10
205.0
 20
105.26986291886919
 30
0.0
 40
1.0000000000000011
 50
7.875294757667552
 51
172.1247052423324
  0
ARC
  5
3C7
  8
PATTERN_FILL
  6
CONTINUOUS
 62
     7
 10
257.1863402885225
 20
145.97902688688851
 30
0.0
 40
1.0000000000000011
 50
47.135856644602548
 51
247.35116541291919
  0
CIRCLE
  5
3C8
  8
PATTERN_FILL
  6
CONTINUOUS
 62
     7
 10
257.1863402885225
 20
148.97902688688851
 30
0.0
 40
1.0
  0
CIRCLE
  5
3C9
  8
PATTERN_FILL
  6
CONTINUOUS
 62
     7
 10
257.1863402885225
 20
151.97902688688851
 30
0.0
 40
1.0
  0
CIRCLE
  5
3CA
  8
PATTERN_FILL
  6
CONTINUOUS
 62
     7
 10
257.1863402885225
 20
154.97902688688839
 30
0.0
 40
1.0
  0
CIRCLE
  5
3CB
  8
PATTERN_FILL
  6
CONTINUOUS
 62
     7
 10
257.1863402885225
 20
157.97902688688839
 30
0.0
 40
1.0
  0
CIRCLE
  5
3CC
  8
PATTERN_FILL
  6
CONTINUOUS
 62
     7
 10
257.1863402885225
 20
160.97902688688839
 30
0.0
 40
1.0
  0
CIRCLE
  5
3CD
  8
PATTERN_FILL
  6
CONTINUOUS
 62
     7
 10
257.1863402885225
 20
163.97902688688851
 30
0.0
 40
1.0
  0
CIRCLE
  5
3CE
  8
PATTERN_FILL
  6
CONTINUOUS
 62
     7
 10
257.1863402885225
 20
166.97902688688851
 30
0.0
 40
1.0
  0
CIRCLE
  5
3CF
  8
PATTERN_FILL
  6
CONTINUOUS
 62
     7
 10
257.1863402885225
 20
169.97902688688851
 30
0.0
 40
1.0
  0
CIRCLE
  5
3D0
  8
PATTERN_FILL
  6
CONTINUOUS
 62
     7
 10
257.1863402885225
 20
172.97902688688851
 30
0.0
 40
1.0
  0
CIRCLE
  5
3D1
  8
PATTERN_FILL
  6
CONTINUOUS
 62
     7
 10
257.1863402885225
 20
175.97902688688851
 30
0.0
 40
1.0
  0
CIRCLE
  5
3D2
  8
PATTERN_FILL
  6
CONTINUOUS
 62
     7
 10
257.1863402885225
 20
178.97902688688839
 30
0.0
 40
1.0
  0
CIRCLE
  5
3D3
  8
PATTERN_FILL
  6
CONTINUOUS
 62
     7
 10
257.1863402885225
 20
181.97902688688839
 30
0.0
 40
1.0
  0
CIRCLE
  5
3D4
  8
PATTERN_FILL
  6
CONTINUOUS
 62
     7
 10
257.1863402885225
 20
184.97902688688839
 30
0.0
 40
1.0
  0
CIRCLE
  5
3D5
  8
PATTERN_FILL
  6
CONTINUOUS
 62
     7
 10
257.1863402885225
 20
187.97902688688851
 30
0.0
 40
1.0
  0
CIRCLE
  5
3D6
  8
PATTERN_FILL
  6
CONTINUOUS
 62
     7
 10
257.1863402885225
 20
190.97902688688851
 30
0.0
 40
1.0
  0
CIRCLE
  5
3D7
  8
PATTERN_FILL
  6
CONTINUOUS
 62
     7
 10
257.1863402885225
 20
193.97902688688851
 30
0.0
 40
1.0
  0
CIRCLE
  5
3D8
  8
PATTERN_FILL
  6
CONTINUOUS
 62
     7
 10
257.1863402885225
 20
196.97902688688851
 30
0.0
 40
1.0
  0
CIRCLE
  5
3D9
  8
PATTERN_FILL
  6
CONTINUOUS
 62
     7
 10
257.1863402885225
 20
199.97902688688851
 30
0.0
 40
1.0
  0
CIRCLE
  5
3DA
  8
PATTERN_FILL
  6
CONTINUOUS
 62
     7
 10
257.1863402885225
 20
202.97902688688851
 30
0.0
 40
1.0
  0
CIRCLE
  5
3DB
  8
PATTERN_FILL
  6
CONTINUOUS
 62
     7
 10
257.1863402885225
 20
205.97902688688851
 30
0.0
 40
1.0
  0
CIRCLE
  5
3DC
  8
PATTERN_FILL
  6
CONTINUOUS
 62
     7
 10
257.1863402885225
 20
208.97902688688851
 30
0.0
 40
1.0
  0
CIRCLE
  5
3DD
  8
PATTERN_FILL
  6
CONTINUOUS
 62
     7
 10
257.1863402885225
 20
211.97902688688851
 30
0.0
 40
1.0
  0
CIRCLE
  5
3DE
  8
PATTERN_FILL
  6
CONTINUOUS
 62
     7
 10
257.1863402885225
 20
214.97902688688851
 30
0.0
 40
1.0
  0
CIRCLE
  5
3DF
  8
PATTERN_FILL
  6
CONTINUOUS
 62
     7
 10
257.1863402885225
 20
217.97902688688851
 30
0.0
 40
1.0
  0
CIRCLE
  5
3E0
  8
PATTERN_FILL
  6
CONTINUOUS
 62
     7
 10
257.1863402885225
 20
220.97902688688851
 30
0.0
 40
1.0
  0
CIRCLE
  5
3E1
  8
PATTERN_FILL
  6
CONTINUOUS
 62
     7
 10
257.1863402885225
 20
223.97902688688851
 30
0.0
 40
1.0
  0
CIRCLE
  5
3E2
  8
PATTERN_FILL
  6
CONTINUOUS
 62
     7
 10
257.1863402885225
 20
226.97902688688851
 30
0.0
 40
1.0
  0
CIRCLE
  5
3E3
  8
PATTERN_FILL
  6
CONTINUOUS
 62
     7
 10
257.1863402885225
 20
229.97902688688851
 30
0.0
 40
1.0
  0
CIRCLE
  5
3E4
  8
PATTERN_FILL
  6
CONTINUOUS
 62
     7
 10
257.1863402885225
 20
232.97902688688851
 30
0.0
 40
1.0
  0
CIRCLE
  5
3E5
  8
PATTERN_FILL
  6
CONTINUOUS
 62
     7
 10
257.1863402885225
 20
235.97902688688851
 30
0.0
 40
1.0
  0
CIRCLE
  5
3E6
  8
PATTERN_FILL
  6
CONTINUOUS
 62
     7
 10
257.1863402885225
 20
238.97902688688851
 30
0.0
 40
1.0
  0
CIRCLE
  5
3E7
  8
PATTERN_FILL
  6
CONTINUOUS
 62
     7
 10
257.1863402885225
 20
241.97902688688851
 30
0.0
 40
1.0
  0
CIRCLE
  5
3E8
  8
PATTERN_FILL
  6
CONTINUOUS
 62
     7
 10
257.1863402885225
 20
244.97902688688851
 30
0.0
 40
1.0
  0
CIRCLE
  5
3E9
  8
PATTERN_FILL
  6
CONTINUOUS
 62
     7
 10
257.1863402885225
 20
247.97902688688851
 30
0.0
 40
1.0
  0
CIRCLE
  5
3EA
  8
PATTERN_FILL
  6
CONTINUOUS
 62
     7
 10
257.1863402885225
 20
250.97902688688851
 30
0.0
 40
1.0
  0
ARC
  5
3EB
  8
PATTERN_FILL
  6
CONTINUOUS
 62
     7
 10
257.1863402885225
 20
253.97902688688851
 30
0.0
 40
1.0
 50
103.8309501808293
 51
324.02331599686278
  0
ARC
  5
3EC
  8
PATTERN_FILL
  6
CONTINUOUS
 62
     7
 10
260.1863402885225
 20
148.97902688688851
 30
0.0
 40
0.9999999999999907
 50
94.007005275819765
 51
202.985936566753
  0
CIRCLE
  5
3ED
  8
PATTERN_FILL
  6
CONTINUOUS
 62
     7
 10
260.1863402885225
 20
151.97902688688851
 30
0.0
 40
1.0
  0
CIRCLE
  5
3EE
  8
PATTERN_FILL
  6
CONTINUOUS
 62
     7
 10
260.1863402885225
 20
154.97902688688839
 30
0.0
 40
1.0
  0
CIRCLE
  5
3EF
  8
PATTERN_FILL
  6
CONTINUOUS
 62
     7
 10
260.1863402885225
 20
157.97902688688839
 30
0.0
 40
1.0
  0
CIRCLE
  5
3F0
  8
PATTERN_FILL
  6
CONTINUOUS
 62
     7
 10
260.1863402885225
 20
160.97902688688839
 30
0.0
 40
1.0
  0
CIRCLE
  5
3F1
  8
PATTERN_FILL
  6
CONTINUOUS
 62
     7
 10
260.1863402885225
 20
163.97902688688851
 30
0.0
 40
1.0
  0
CIRCLE
  5
3F2
  8
PATTERN_FILL
  6
CONTINUOUS
 62
     7
 10
260.1863402885225
 20
166.97902688688851
 30
0.0
 40
1.0
  0
CIRCLE
  5
3F3
  8
PATTERN_FILL
  6
CONTINUOUS
 62
     7
 10
260.1863402885225
 20
169.97902688688851
 30
0.0
 40
1.0
  0
CIRCLE
  5
3F4
  8
PATTERN_FILL
  6
CONTINUOUS
 62
     7
 10
260.1863402885225
 20
172.97902688688851
 30
0.0
 40
1.0
  0
CIRCLE
  5
3F5
  8
PATTERN_FILL
  6
CONTINUOUS
 62
     7
 10
260.1863402885225
 20
175.97902688688851
 30
0.0
 40
1.0
  0
CIRCLE
  5
3F6
  8
PATTERN_FILL
  6
CONTINUOUS
 62
     7
 10
260.1863402885225
 20
178.97902688688839
 30
0.0
 40
1.0
  0
CIRCLE
  5
3F7
  8
PATTERN_FILL
  6
CONTINUOUS
 62
     7
 10
260.1863402885225
 20
181.97902688688839
 30
0.0
 40
1.0
  0
CIRCLE
  5
3F8
  8
PATTERN_FILL
  6
CONTINUOUS
 62
     7
 10
260.1863402885225
 20
184.97902688688839
 30
0.0
 40
1.0
  0
CIRCLE
  5
3F9
  8
PATTERN_FILL
  6
CONTINUOUS
 62
     7
 10
260.1863402885225
 20
187.97902688688851
 30
0.0
 40
1.0
  0
CIRCLE
  5
3FA
  8
PATTERN_FILL
  6
CONTINUOUS
 62
     7
 10
260.1863402885225
 20
190.97902688688851
 30
0.0
 40
1.0
  0
CIRCLE
  5
3FB
  8
PATTERN_FILL
  6
CONTINUOUS
 62
     7
 10
260.1863402885225
 20
193.97902688688851
 30
0.0
 40
1.0
  0
CIRCLE
  5
3FC
  8
PATTERN_FILL
  6
CONTINUOUS
 62
     7
 10
260.1863402885225
 20
196.97902688688851
 30
0.0
 40
1.0
  0
CIRCLE
  5
3FD
  8
PATTERN_FILL
  6
CONTINUOUS
 62
     7
 10
260.1863402885225
 20
199.97902688688851
 30
0.0
 40
1.0
  0
CIRCLE
  5
3FE
  8
PATTERN_FILL
  6
CONTINUOUS
 62
     7
 10
260.1863402885225
 20
202.97902688688851
 30
0.0
 40
1.0
  0
CIRCLE
  5
3FF
  8
PATTERN_FILL
  6
CONTINUOUS
 62
     7
 10
260.1863402885225
 20
205.97902688688851
 30
0.0
 40
1.0
  0
CIRCLE
  5
400
  8
PATTERN_FILL
  6
CONTINUOUS
 62
     7
 10
260.1863402885225
 20
208.97902688688851
 30
0.0
 40
1.0
  0
CIRCLE
  5
401
  8
PATTERN_FILL
  6
CONTINUOUS
 62
     7
 10
260.1863402885225
 20
211.97902688688851
 30
0.0
 40
1.0
  0
CIRCLE
  5
402
  8
PATTERN_FILL
  6
CONTINUOUS
 62
     7
 10
260.1863402885225
 20
214.97902688688851
 30
0.0
 40
1.0
  0
CIRCLE
  5
403
  8
PATTERN_FILL
  6
CONTINUOUS
 62
     7
 10
260.1863402885225
 20
217.97902688688851
 30
0.0
 40
1.0
  0
CIRCLE
  5
404
  8
PATTERN_FILL
  6
CONTINUOUS
 62
     7
 10
260.1863402885225
 20
220.97902688688851
 30
0.0
 40
1.0
  0
CIRCLE
  5
405
  8
PATTERN_FILL
  6
CONTINUOUS
 62
     7
 10
260.1863402885225
 20
223.97902688688851
 30
0.0
 40
1.0
  0
CIRCLE
  5
406
  8
PATTERN_FILL
  6
CONTINUOUS
 62
     7
 10
260.1863402885225
 20
226.97902688688851
 30
0.0
 40
1.0
  0
CIRCLE
  5
407
  8
PATTERN_FILL
  6
CONTINUOUS
 62
     7
 10
260.1863402885225
 20
229.97902688688851
 30
0.0
 40
1.0
  0
CIRCLE
  5
408
  8
PATTERN_FILL
  6
CONTINUOUS
 62
     7
 10
260.1863402885225
 20
232.97902688688851
 30
0.0
 40
1.0
  0
CIRCLE
  5
409
  8
PATTERN_FILL
  6
CONTINUOUS
 62
     7
 10
260.1863402885225
 20
235.97902688688851
 30
0.0
 40
1.0
  0
CIRCLE
  5
40A
  8
PATTERN_FILL
  6
CONTINUOUS
 62
     7
 10
260.1863402885225
 20
238.97902688688851
 30
0.0
 40
1.0
  0
CIRCLE
  5
40B
  8
PATTERN_FILL
  6
CONTINUOUS
 62
     7
 10
260.1863402885225
 20
241.97902688688851
 30
0.0
 40
1.0
  0
CIRCLE
  5
40C
  8
PATTERN_FILL
  6
CONTINUOUS
 62
     7
 10
260.1863402885225
 20
244.97902688688851
 30
0.0
 40
1.0
  0
CIRCLE
  5
40D
  8
PATTERN_FILL
  6
CONTINUOUS
 62
     7
 10
260.1863402885225
 20
247.97902688688851
 30
0.0
 40
1.0
  0
ARC
  5
40E
  8
PATTERN_FILL
  6
CONTINUOUS
 62
     7
 10
260.1863402885225
 20
250.97902688688851
 30
0.0
 40
1.000000000000002
 50
155.47391011595539
 51
267.49116514322043
  0
ARC
  5
40F
  8
PATTERN_FILL
  6
CONTINUOUS
 62
     7
 10
263.1863402885225
 20
154.97902688688839
 30
0.0
 40
1.0
 50
76.006340063733731
 51
228.86458358314849
  0
CIRCLE
  5
410
  8
PATTERN_FILL
  6
CONTINUOUS
 62
     7
 10
263.1863402885225
 20
157.97902688688839
 30
0.0
 40
1.0
  0
CIRCLE
  5
411
  8
PATTERN_FILL
  6
CONTINUOUS
 62
     7
 10
263.1863402885225
 20
160.97902688688839
 30
0.0
 40
1.0
  0
CIRCLE
  5
412
  8
PATTERN_FILL
  6
CONTINUOUS
 62
     7
 10
263.1863402885225
 20
163.97902688688851
 30
0.0
 40
1.0
  0
CIRCLE
  5
413
  8
PATTERN_FILL
  6
CONTINUOUS
 62
     7
 10
263.1863402885225
 20
166.97902688688851
 30
0.0
 40
1.0
  0
CIRCLE
  5
414
  8
PATTERN_FILL
  6
CONTINUOUS
 62
     7
 10
263.1863402885225
 20
169.97902688688851
 30
0.0
 40
1.0
  0
CIRCLE
  5
415
  8
PATTERN_FILL
  6
CONTINUOUS
 62
     7
 10
263.1863402885225
 20
172.97902688688851
 30
0.0
 40
1.0
  0
CIRCLE
  5
416
  8
PATTERN_FILL
  6
CONTINUOUS
 62
     7
 10
263.1863402885225
 20
175.97902688688851
 30
0.0
 40
1.0
  0
CIRCLE
  5
417
  8
PATTERN_FILL
  6
CONTINUOUS
 62
     7
 10
263.1863402885225
 20
178.97902688688839
 30
0.0
 40
1.0
  0
CIRCLE
  5
418
  8
PATTERN_FILL
  6
CONTINUOUS
 62
     7
 10
263.1863402885225
 20
181.97902688688839
 30
0.0
 40
1.0
  0
CIRCLE
  5
419
  8
PATTERN_FILL
  6
CONTINUOUS
 62
     7
 10
263.1863402885225
 20
184.97902688688839
 30
0.0
 40
1.0
  0
CIRCLE
  5
41A
  8
PATTERN_FILL
  6
CONTINUOUS
 62
     7
 10
263.1863402885225
 20
187.97902688688851
 30
0.0
 40
1.0
  0
CIRCLE
  5
41B
  8
PATTERN_FILL
  6
CONTINUOUS
 62
     7
 10
263.1863402885225
 20
190.97902688688851
 30
0.0
 40
1.0
  0
CIRCLE
  5
41C
  8
PATTERN_FILL
  6
CONTINUOUS
 62
     7
 10
263.1863402885225
 20
193.97902688688851
 30
0.0
 40
1.0
  0
CIRCLE
  5
41D
  8
PATTERN_FILL
  6
CONTINUOUS
 62
     7
 10
263.1863402885225
 20
196.97902688688851
 30
0.0
 40
1.0
  0
CIRCLE
  5
41E
  8
PATTERN_FILL
  6
CONTINUOUS
 62
     7
 10
263.1863402885225
 20
199.97902688688851
 30
0.0
 40
1.0
  0
CIRCLE
  5
41F
  8
PATTERN_FILL
  6
CONTINUOUS
 62
     7
 10
263.1863402885225
 20
202.97902688688851
 30
0.0
 40
1.0
  0
CIRCLE
  5
420
  8
PATTERN_FILL
  6
CONTINUOUS
 62
     7
 10
263.1863402885225
 20
205.97902688688851
 30
0.0
 40
1.0
  0
CIRCLE
  5
421
  8
PATTERN_FILL
  6
CONTINUOUS
 62
     7
 10
263.1863402885225
 20
208.97902688688851
 30
0.0
 40
1.0
  0
CIRCLE
  5
422
  8
PATTERN_FILL
  6
CONTINUOUS
 62
     7
 10
263.1863402885225
 20
211.97902688688851
 30
0.0
 40
1.0
  0
CIRCLE
  5
423
  8
PATTERN_FILL
  6
CONTINUOUS
 62
     7
 10
263.1863402885225
 20
214.97902688688851
 30
0.0
 40
1.0
  0
CIRCLE
  5
424
  8
PATTERN_FILL
  6
CONTINUOUS
 62
     7
 10
263.1863402885225
 20
217.97902688688851
 30
0.0
 40
1.0
  0
CIRCLE
  5
425
  8
PATTERN_FILL
  6
CONTINUOUS
 62
     7
 10
263.1863402885225
 20
220.97902688688851
 30
0.0
 40
1.0
  0
CIRCLE
  5
426
  8
PATTERN_FILL
  6
CONTINUOUS
 62
     7
 10
263.1863402885225
 20
223.97902688688851
 30
0.0
 40
1.0
  0
CIRCLE
  5
427
  8
PATTERN_FILL
  6
CONTINUOUS
 62
     7
 10
263.1863402885225
 20
226.97902688688851
 30
0.0
 40
1.0
  0
CIRCLE
  5
428
  8
PATTERN_FILL
  6
CONTINUOUS
 62
     7
 10
263.1863402885225
 20
229.97902688688851
 30
0.0
 40
1.0
  0
CIRCLE
  5
429
  8
PATTERN_FILL
  6
CONTINUOUS
 62
     7
 10
263.1863402885225
 20
232.97902688688851
 30
0.0
 40
1.0
  0
CIRCLE
  5
42A
  8
PATTERN_FILL
  6
CONTINUOUS
 62
     7
 10
263.1863402885225
 20
235.97902688688851
 30
0.0
 40
1.0
  0
CIRCLE
  5
42B
  8
PATTERN_FILL
  6
CONTINUOUS
 62
     7
 10
263.1863402885225
 20
238.97902688688851
 30
0.0
 40
1.0
  0
CIRCLE
  5
42C
  8
PATTERN_FILL
  6
CONTINUOUS
 62
     7
 10
263.1863402885225
 20
241.97902688688851
 30
0.0
 40
1.0
  0
ARC
  5
42D
  8
PATTERN_FILL
  6
CONTINUOUS
 62
     7
 10
263.1863402885225
 20
244.97902688688851
 30
0.0
 40
1.0
 50
129.97514924121879
 51
285.11012094714232
  0
ARC
  5
42E
  8
PATTERN_FILL
  6
CONTINUOUS
 62
     7
 10
266.1863402885225
 20
160.97902688688839
 30
0.0
 40
0.9999999999999932
 50
86.778939687138674
 51
225.98887880272181
  0
CIRCLE
  5
42F
  8
PATTERN_FILL
  6
CONTINUOUS
 62
     7
 10
266.1863402885225
 20
163.97902688688851
 30
0.0
 40
1.0
  0
CIRCLE
  5
430
  8
PATTERN_FILL
  6
CONTINUOUS
 62
     7
 10
266.1863402885225
 20
166.97902688688851
 30
0.0
 40
1.0
  0
CIRCLE
  5
431
  8
PATTERN_FILL
  6
CONTINUOUS
 62
     7
 10
266.1863402885225
 20
169.97902688688851
 30
0.0
 40
1.0
  0
CIRCLE
  5
432
  8
PATTERN_FILL
  6
CONTINUOUS
 62
     7
 10
266.1863402885225
 20
172.97902688688851
 30
0.0
 40
1.0
  0
CIRCLE
  5
433
  8
PATTERN_FILL
  6
CONTINUOUS
 62
     7
 10
266.1863402885225
 20
175.97902688688851
 30
0.0
 40
1.0
  0
CIRCLE
  5
434
  8
PATTERN_FILL
  6
CONTINUOUS
 62
     7
 10
266.1863402885225
 20
178.97902688688839
 30
0.0
 40
1.0
  0
CIRCLE
  5
435
  8
PATTERN_FILL
  6
CONTINUOUS
 62
     7
 10
266.1863402885225
 20
181.97902688688839
 30
0.0
 40
1.0
  0
CIRCLE
  5
436
  8
PATTERN_FILL
  6
CONTINUOUS
 62
     7
 10
266.1863402885225
 20
184.97902688688839
 30
0.0
 40
1.0
  0
CIRCLE
  5
437
  8
PATTERN_FILL
  6
CONTINUOUS
 62
     7
 10
266.1863402885225
 20
187.97902688688851
 30
0.0
 40
1.0
  0
CIRCLE
  5
438
  8
PATTERN_FILL
  6
CONTINUOUS
 62
     7
 10
266.1863402885225
 20
190.97902688688851
 30
0.0
 40
1.0
  0
CIRCLE
  5
439
  8
PATTERN_FILL
  6
CONTINUOUS
 62
     7
 10
266.1863402885225
 20
193.97902688688851
 30
0.0
 40
1.0
  0
CIRCLE
  5
43A
  8
PATTERN_FILL
  6
CONTINUOUS
 62
     7
 10
266.1863402885225
 20
196.97902688688851
 30
0.0
 40
1.0
  0
CIRCLE
  5
43B
  8
PATTERN_FILL
  6
CONTINUOUS
 62
     7
 10
266.1863402885225
 20
199.97902688688851
 30
0.0
 40
1.0
  0
CIRCLE
  5
43C
  8
PATTERN_FILL
  6
CONTINUOUS
 62
     7
 10
266.1863402885225
 20
202.97902688688851
 30
0.0
 40
1.0
  0
CIRCLE
  5
43D
  8
PATTERN_FILL
  6
CONTINUOUS
 62
     7
 10
266.1863402885225
 20
205.97902688688851
 30
0.0
 40
1.0
  0
CIRCLE
  5
43E
  8
PATTERN_FILL
  6
CONTINUOUS
 62
     7
 10
266.1863402885225
 20
208.97902688688851
 30
0.0
 40
1.0
  0
CIRCLE
  5
43F
  8
PATTERN_FILL
  6
CONTINUOUS
 62
     7
 10
266.1863402885225
 20
211.97902688688851
 30
0.0
 40
1.0
  0
CIRCLE
  5
440
  8
PATTERN_FILL
  6
CONTINUOUS
 62
     7
 10
266.1863402885225
 20
214.97902688688851
 30
0.0
 40
1.0
  0
CIRCLE
  5
441
  8
PATTERN_FILL
  6
CONTINUOUS
 62
     7
 10
266.1863402885225
 20
217.97902688688851
 30
0.0
 40
1.0
  0
CIRCLE
  5
442
  8
PATTERN_FILL
  6
CONTINUOUS
 62
     7
 10
266.1863402885225
 20
220.97902688688851
 30
0.0
 40
1.0
  0
CIRCLE
  5
443
  8
PATTERN_FILL
  6
CONTINUOUS
 62
     7
 10
266.1863402885225
 20
223.97902688688851
 30
0.0
 40
1.0
  0
CIRCLE
  5
444
  8
PATTERN_FILL
  6
CONTINUOUS
 62
     7
 10
266.1863402885225
 20
226.97902688688851
 30
0.0
 40
1.0
  0
CIRCLE
  5
445
  8
PATTERN_FILL
  6
CONTINUOUS
 62
     7
 10
266.1863402885225
 20
229.97902688688851
 30
0.0
 40
1.0
  0
CIRCLE
  5
446
  8
PATTERN_FILL
  6
CONTINUOUS
 62
     7
 10
266.1863402885225
 20
232.97902688688851
 30
0.0
 40
1.0
  0
CIRCLE
  5
447
  8
PATTERN_FILL
  6
CONTINUOUS
 62
     7
 10
266.1863402885225
 20
235.97902688688851
 30
0.0
 40
1.0
  0
ARC
  5
448
  8
PATTERN_FILL
  6
CONTINUOUS
 62
     7
 10
266.1863402885225
 20
238.97902688688851
 30
0.0
 40
1.0
 50
132.96869346653909
 51
274.2182655724398
  0
ARC
  5
449
  8
PATTERN_FILL
  6
CONTINUOUS
 62
     7
 10
269.1863402885225
 20
166.97902688688851
 30
0.0
 40
0.9999999999999996
 50
137.1107134471898
 51
183.49841336017519
  0
ARC
  5
44A
  8
PATTERN_FILL
  6
CONTINUOUS
 62
     7
 10
269.1863402885225
 20
169.97902688688851
 30
0.0
 40
1.0000000000000051
 50
69.312691972214978
 51
254.6333196048403
  0
CIRCLE
  5
44B
  8
PATTERN_FILL
  6
CONTINUOUS
 62
     7
 10
269.1863402885225
 20
172.97902688688851
 30
0.0
 40
1.0
  0
CIRCLE
  5
44C
  8
PATTERN_FILL
  6
CONTINUOUS
 62
     7
 10
269.1863402885225
 20
175.97902688688851
 30
0.0
 40
1.0
  0
CIRCLE
  5
44D
  8
PATTERN_FILL
  6
CONTINUOUS
 62
     7
 10
269.1863402885225
 20
178.97902688688839
 30
0.0
 40
1.0
  0
CIRCLE
  5
44E
  8
PATTERN_FILL
  6
CONTINUOUS
 62
     7
 10
269.1863402885225
 20
181.97902688688839
 30
0.0
 40
1.0
  0
CIRCLE
  5
44F
  8
PATTERN_FILL
  6
CONTINUOUS
 62
     7
 10
269.1863402885225
 20
184.97902688688839
 30
0.0
 40
1.0
  0
CIRCLE
  5
450
  8
PATTERN_FILL
  6
CONTINUOUS
 62
     7
 10
269.1863402885225
 20
187.97902688688851
 30
0.0
 40
1.0
  0
CIRCLE
  5
451
  8
PATTERN_FILL
  6
CONTINUOUS
 62
     7
 10
269.1863402885225
 20
190.97902688688851
 30
0.0
 40
1.0
  0
CIRCLE
  5
452
  8
PATTERN_FILL
  6
CONTINUOUS
 62
     7
 10
269.1863402885225
 20
193.97902688688851
 30
0.0
 40
1.0
  0
CIRCLE
  5
453
  8
PATTERN_FILL
  6
CONTINUOUS
 62
     7
 10
269.1863402885225
 20
196.97902688688851
 30
0.0
 40
1.0
  0
CIRCLE
  5
454
  8
PATTERN_FILL
  6
CONTINUOUS
 62
     7
 10
269.1863402885225
 20
199.97902688688851
 30
0.0
 40
1.0
  0
CIRCLE
  5
455
  8
PATTERN_FILL
  6
CONTINUOUS
 62
     7
 10
269.1863402885225
 20
202.97902688688851
 30
0.0
 40
1.0
  0
CIRCLE
  5
456
  8
PATTERN_FILL
  6
CONTINUOUS
 62
     7
 10
269.1863402885225
 20
205.97902688688851
 30
0.0
 40
1.0
  0
CIRCLE
  5
457
  8
PATTERN_FILL
  6
CONTINUOUS
 62
     7
 10
269.1863402885225
 20
208.97902688688851
 30
0.0
 40
1.0
  0
CIRCLE
  5
458
  8
PATTERN_FILL
  6
CONTINUOUS
 62
     7
 10
269.1863402885225
 20
211.97902688688851
 30
0.0
 40
1.0
  0
CIRCLE
  5
459
  8
PATTERN_FILL
  6
CONTINUOUS
 62
     7
 10
269.1863402885225
 20
214.97902688688851
 30
0.0
 40
1.0
  0
CIRCLE
  5
45A
  8
PATTERN_FILL
  6
CONTINUOUS
 62
     7
 10
269.1863402885225
 20
217.97902688688851
 30
0.0
 40
1.0
  0
CIRCLE
  5
45B
  8
PATTERN_FILL
  6
CONTINUOUS
 62
     7
 10
269.1863402885225
 20
220.97902688688851
 30
0.0
 40
1.0
  0
CIRCLE
  5
45C
  8
PATTERN_FILL
  6
CONTINUOUS
 62
     7
 10
269.1863402885225
 20
223.97902688688851
 30
0.0
 40
1.0
  0
CIRCLE
  5
45D
  8
PATTERN_FILL
  6
CONTINUOUS
 62
     7
 10
269.1863402885225
 20
226.97902688688851
 30
0.0
 40
1.0
  0
ARC
  5
45E
  8
PATTERN_FILL
  6
CONTINUOUS
 62
     7
 10
269.1863402885225
 20
229.97902688688851
 30
0.0
 40
0.9999999999999971
 50
104.5983850991562
 51
291.40848061664587
  0
ARC
  5
45F
  8
PATTERN_FILL
  6
CONTINUOUS
 62
     7
 10
269.1863402885225
 20
232.97902688688851
 30
0.0
 40
0.9999999999999936
 50
174.51992977555491
 51
224.82474857959201
  0
ARC
  5
460
  8
PATTERN_FILL
  6
CONTINUOUS
 62
     7
 10
272.1863402885225
 20
178.97902688688839
 30
0.0
 40
0.9999999999999978
 50
106.3947164997231
 51
228.71403063432791
  0
ARC
  5
461
  8
PATTERN_FILL
  6
CONTINUOUS
 62
     7
 10
272.1863402885225
 20
181.97902688688839
 30
0.0
 40
1.0000000000000011
 50
72.465235868388604
 51
266.10707568214713
  0
ARC
  5
462
  8
PATTERN_FILL
  6
CONTINUOUS
 62
     7
 10
272.1863402885225
 20
184.97902688688839
 30
0.0
 40
0.9999999999999968
 50
41.736075170464787
 51
300.33986076798709
  0
CIRCLE
  5
463
  8
PATTERN_FILL
  6
CONTINUOUS
 62
     7
 10
272.1863402885225
 20
187.97902688688851
 30
0.0
 40
1.0
  0
CIRCLE
  5
464
  8
PATTERN_FILL
  6
CONTINUOUS
 62
     7
 10
272.1863402885225
 20
190.97902688688851
 30
0.0
 40
1.0
  0
CIRCLE
  5
465
  8
PATTERN_FILL
  6
CONTINUOUS
 62
     7
 10
272.1863402885225
 20
193.97902688688851
 30
0.0
 40
1.0
  0
CIRCLE
  5
466
  8
PATTERN_FILL
  6
CONTINUOUS
 62
     7
 10
272.1863402885225
 20
196.97902688688851
 30
0.0
 40
1.0
  0
CIRCLE
  5
467
  8
PATTERN_FILL
  6
CONTINUOUS
 62
     7
 10
272.1863402885225
 20
199.97902688688851
 30
0.0
 40
1.0
  0
CIRCLE
  5
468
  8
PATTERN_FILL
  6
CONTINUOUS
 62
     7
 10
272.1863402885225
 20
202.97902688688851
 30
0.0
 40
1.0
  0
CIRCLE
  5
469
  8
PATTERN_FILL
  6
CONTINUOUS
 62
     7
 10
272.1863402885225
 20
205.97902688688851
 30
0.0
 40
1.0
  0
CIRCLE
  5
46A
  8
PATTERN_FILL
  6
CONTINUOUS
 62
     7
 10
272.1863402885225
 20
208.97902688688851
 30
0.0
 40
1.0
  0
CIRCLE
  5
46B
  8
PATTERN_FILL
  6
CONTINUOUS
 62
     7
 10
272.1863402885225
 20
211.97902688688851
 30
0.0
 40
1.0
  0
ARC
  5
46C
  8
PATTERN_FILL
  6
CONTINUOUS
 62
     7
 10
272.1863402885225
 20
214.97902688688851
 30
0.0
 40
0.9999999999999985
 50
59.147454457926948
 51
318.72736555452377
  0
ARC
  5
46D
  8
PATTERN_FILL
  6
CONTINUOUS
 62
     7
 10
272.1863402885225
 20
217.97902688688851
 30
0.0
 40
0.9999999999999971
 50
93.418306551617334
 51
287.96065670254097
  0
ARC
  5
46E
  8
PATTERN_FILL
  6
CONTINUOUS
 62
     7
 10
272.1863402885225
 20
220.97902688688851
 30
0.0
 40
0.9999999999999957
 50
130.675713499377
 51
254.16741343917229
  0
ARC
  5
46F
  8
PATTERN_FILL
  6
CONTINUOUS
 62
     7
 10
74.335593220338865
 20
267.3593220338982
 30
0.0
 40
94.796597805367512
 50
54.784773204813298
 51
74.241798268583096
  0
ARC
  5
470
  8
PATTERN_FILL
  6
CONTINUOUS
 62
     7
 10
225.6644067796615
 20
267.3593220338982
 30
0.0
 40
94.796597805367512
 50
105.7582017314169
 51
125.21522679518669
  0
ARC
  5
471
  8
PATTERN_FILL
  6
CONTINUOUS
 62
     7
 10
94.266143474098726
 20
357.26491449845741
 30
0.0
 40
1.0000000000000071
 50
349.06992680021631
 51
125.41709525730229
  0
CIRCLE
  5
472
  8
PATTERN_FILL
  6
CONTINUOUS
 62
     7
 10
97.266143474098726
 20
357.26491449845741
 30
0.0
 40
1.0
  0
CIRCLE
  5
473
  8
PATTERN_FILL
  6
CONTINUOUS
 62
     7
 10
100.2661434740987
 20
357.26491449845741
 30
0.0
 40
1.0
  0
ARC
  5
474
  8
PATTERN_FILL
  6
CONTINUOUS
 62
     7
 10
103.2661434740987
 20
357.26491449845741
 30
0.0
 40
0.9999999999999857
 50
141.90464444560081
 51
2.4202400844068279
  0
ARC
  5
475
  8
PATTERN_FILL
  6
CONTINUOUS
 62
     7
 10
106.2661434740987
 20
357.26491449845741
 30
0.0
 40
0.999999999999998
 50
198.3342065840867
 51
302.56014909470139
  0
ARC
  5
476
  8
PATTERN_FILL
  6
CONTINUOUS
 62
     7
 10
100.2661434740987
 20
354.26491449845741
 30
0.0
 40
1.000000000000004
 50
300.8406889954037
 51
177.17450152135231
  0
CIRCLE
  5
477
  8
PATTERN_FILL
  6
CONTINUOUS
 62
     7
 10
103.2661434740987
 20
354.26491449845741
 30
0.0
 40
1.0
  0
CIRCLE
  5
478
  8
PATTERN_FILL
  6
CONTINUOUS
 62
     7
 10
106.2661434740987
 20
354.26491449845741
 30
0.0
 40
1.0
  0
CIRCLE
  5
479
  8
PATTERN_FILL
  6
CONTINUOUS
 62
     7
 10
109.2661434740987
 20
354.26491449845741
 30
0.0
 40
1.0
  0
ARC
  5
47A
  8
PATTERN_FILL
  6
CONTINUOUS
 62
     7
 10
112.2661434740987
 20
354.26491449845741
 30
0.0
 40
1.0000000000000031
 50
158.20774276612741
 51
334.63386210507753
  0
ARC
  5
47B
  8
PATTERN_FILL
  6
CONTINUOUS
 62
     7
 10
103.2661434740987
 20
351.26491449845741
 30
0.0
 40
0.9999999999999975
 50
11.265472796815089
 51
111.5794105090192
  0
ARC
  5
47C
  8
PATTERN_FILL
  6
CONTINUOUS
 62
     7
 10
106.2661434740987
 20
351.26491449845741
 30
0.0
 40
0.9999999999999968
 50
283.59918783694121
 51
202.3810237080632
  0
CIRCLE
  5
47D
  8
PATTERN_FILL
  6
CONTINUOUS
 62
     7
 10
109.2661434740987
 20
351.26491449845741
 30
0.0
 40
1.0
  0
CIRCLE
  5
47E
  8
PATTERN_FILL
  6
CONTINUOUS
 62
     7
 10
112.2661434740987
 20
351.26491449845741
 30
0.0
 40
1.0
  0
CIRCLE
  5
47F
  8
PATTERN_FILL
  6
CONTINUOUS
 62
     7
 10
115.2661434740987
 20
351.26491449845741
 30
0.0
 40
1.0
  0
ARC
  5
480
  8
PATTERN_FILL
  6
CONTINUOUS
 62
     7
 10
118.2661434740987
 20
351.26491449845741
 30
0.0
 40
1.0
 50
147.71559983172909
 51
337.01388313404692
  0
ARC
  5
481
  8
PATTERN_FILL
  6
CONTINUOUS
 62
     7
 10
109.2661434740987
 20
348.26491449845741
 30
0.0
 40
0.9999999999999998
 50
14.81037233646942
 51
115.9043909853693
  0
ARC
  5
482
  8
PATTERN_FILL
  6
CONTINUOUS
 62
     7
 10
112.2661434740987
 20
348.26491449845741
 30
0.0
 40
0.9999999999999955
 50
301.7709161938206
 51
192.1829087321324
  0
CIRCLE
  5
483
  8
PATTERN_FILL
  6
CONTINUOUS
 62
     7
 10
115.2661434740987
 20
348.26491449845741
 30
0.0
 40
1.0
  0
CIRCLE
  5
484
  8
PATTERN_FILL
  6
CONTINUOUS
 62
     7
 10
118.2661434740987
 20
348.26491449845741
 30
0.0
 40
1.0
  0
CIRCLE
  5
485
  8
PATTERN_FILL
  6
CONTINUOUS
 62
     7
 10
121.2661434740987
 20
348.26491449845741
 30
0.0
 40
1.0
  0
ARC
  5
486
  8
PATTERN_FILL
  6
CONTINUOUS
 62
     7
 10
124.2661434740987
 20
348.26491449845741
 30
0.0
 40
1.000000000000004
 50
164.62326472455081
 51
312.01545987387379
  0
ARC
  5
487
  8
PATTERN_FILL
  6
CONTINUOUS
 62
     7
 10
118.2661434740987
 20
345.26491449845741
 30
0.0
 40
0.999999999999996
 50
344.98083403705402
 51
156.87861368656419
  0
ARC
  5
488
  8
PATTERN_FILL
  6
CONTINUOUS
 62
     7
 10
121.2661434740987
 20
345.26491449845741
 30
0.0
 40
1.0000000000000571
 50
281.97070070490082
 51
223.2670797780944
  0
CIRCLE
  5
489
  8
PATTERN_FILL
  6
CONTINUOUS
 62
     7
 10
124.2661434740987
 20
345.26491449845741
 30
0.0
 40
1.0
  0
ARC
  5
48A
  8
PATTERN_FILL
  6
CONTINUOUS
 62
     7
 10
127.2661434740987
 20
345.26491449845741
 30
0.0
 40
1.0
 50
108.3847099038981
 51
3.2294138611827341
  0
ARC
  5
48B
  8
PATTERN_FILL
  6
CONTINUOUS
 62
     7
 10
127.2661434740987
 20
342.2649144984573
 30
0.0
 40
0.9999999999999928
 50
11.803757331733451
 51
141.22438897248961
  0
ARC
  5
48C
  8
PATTERN_FILL
  6
CONTINUOUS
 62
     7
 10
130.2661434740987
 20
342.2649144984573
 30
0.0
 40
1.0000000000000031
 50
335.07327390058572
 51
47.31444136852997
  0
ARC
  5
48D
  8
PATTERN_FILL
  6
CONTINUOUS
 62
     7
 10
130.2661434740987
 20
342.2649144984573
 30
0.0
 40
1.0
 50
132.68555863146909
 51
181.40786119262921
  0
ARC
  5
48E
  8
PATTERN_FILL
  6
CONTINUOUS
 62
     7
 10
133.0320795753731
 20
343.62688887931228
 30
0.0
 40
0.9999999999999989
 50
218.82096085749839
 51
321.17903914250161
  0
ARC
  5
48F
  8
PATTERN_FILL
  6
CONTINUOUS
 62
     7
 10
133.0320795753731
 20
340.62688887931228
 30
0.0
 40
0.999999999999996
 50
48.879569710832158
 51
111.1619005826533
  0
ARC
  5
490
  8
PATTERN_FILL
  6
CONTINUOUS
 62
     7
 10
136.0320795753731
 20
343.62688887931228
 30
0.0
 40
0.9999999999999989
 50
218.82096085749839
 51
321.17903914250218
  0
ARC
  5
491
  8
PATTERN_FILL
  6
CONTINUOUS
 62
     7
 10
136.0320795753731
 20
340.62688887931228
 30
0.0
 40
0.9999999999999987
 50
14.33013859381315
 51
149.1865426278026
  0
ARC
  5
492
  8
PATTERN_FILL
  6
CONTINUOUS
 62
     7
 10
139.0320795753731
 20
343.62688887931228
 30
0.0
 40
0.9999999999999989
 50
218.82096085749839
 51
321.17903914250161
  0
ARC
  5
493
  8
PATTERN_FILL
  6
CONTINUOUS
 62
     7
 10
139.0320795753731
 20
340.62688887931228
 30
0.0
 40
1.000000000000002
 50
353.51003811654908
 51
173.51264606955581
  0
ARC
  5
494
  8
PATTERN_FILL
  6
CONTINUOUS
 62
     7
 10
142.0320795753731
 20
343.62688887931228
 30
0.0
 40
1.0
 50
218.82096085749779
 51
321.17903914250218
  0
ARC
  5
495
  8
PATTERN_FILL
  6
CONTINUOUS
 62
     7
 10
142.0320795753731
 20
340.62688887931228
 30
0.0
 40
1.0000000000000111
 50
338.20519424344781
 51
192.3480565087346
  0
ARC
  5
496
  8
PATTERN_FILL
  6
CONTINUOUS
 62
     7
 10
145.0320795753731
 20
343.62688887931228
 30
0.0
 40
1.0
 50
218.82096085749779
 51
321.17903914250218
  0
ARC
  5
497
  8
PATTERN_FILL
  6
CONTINUOUS
 62
     7
 10
145.0320795753731
 20
340.62688887931228
 30
0.0
 40
0.9999999999999975
 50
327.37324029882927
 51
206.72863874814681
  0
ARC
  5
498
  8
PATTERN_FILL
  6
CONTINUOUS
 62
     7
 10
148.0320795753731
 20
343.62688887931228
 30
0.0
 40
1.0
 50
218.82096085749779
 51
321.17903914250218
  0
ARC
  5
499
  8
PATTERN_FILL
  6
CONTINUOUS
 62
     7
 10
148.0320795753731
 20
340.62688887931228
 30
0.0
 40
1.000000000000006
 50
321.7073406564225
 51
215.95452179614
  0
ARC
  5
49A
  8
PATTERN_FILL
  6
CONTINUOUS
 62
     7
 10
151.0320795753731
 20
343.62688887931228
 30
0.0
 40
1.0
 50
218.82096085749779
 51
321.17903914250218
  0
ARC
  5
49B
  8
PATTERN_FILL
  6
CONTINUOUS
 62
     7
 10
151.0320795753731
 20
340.62688887931228
 30
0.0
 40
0.9999999999999927
 50
322.42959171535563
 51
218.79677230641479
  0
ARC
  5
49C
  8
PATTERN_FILL
  6
CONTINUOUS
 62
     7
 10
154.0320795753731
 20
343.62688887931228
 30
0.0
 40
1.0
 50
218.82096085749779
 51
321.17903914250218
  0
ARC
  5
49D
  8
PATTERN_FILL
  6
CONTINUOUS
 62
     7
 10
154.0320795753731
 20
340.62688887931228
 30
0.0
 40
1.0000000000000071
 50
329.78026618401788
 51
215.0082284188139
  0
ARC
  5
49E
  8
PATTERN_FILL
  6
CONTINUOUS
 62
     7
 10
157.0320795753731
 20
343.62688887931228
 30
0.0
 40
1.0
 50
218.82096085749779
 51
321.17903914250218
  0
ARC
  5
49F
  8
PATTERN_FILL
  6
CONTINUOUS
 62
     7
 10
157.0320795753731
 20
340.62688887931228
 30
0.0
 40
1.0000000000000031
 50
342.67847770525032
 51
205.6629147587079
  0
ARC
  5
4A0
  8
PATTERN_FILL
  6
CONTINUOUS
 62
     7
 10
160.0320795753731
 20
343.62688887931228
 30
0.0
 40
1.0
 50
218.82096085749779
 51
321.17903914250218
  0
ARC
  5
4A1
  8
PATTERN_FILL
  6
CONTINUOUS
 62
     7
 10
160.0320795753731
 20
340.62688887931228
 30
0.0
 40
1.0000000000000011
 50
0.1209202573423245
 51
191.75738187173749
  0
ARC
  5
4A2
  8
PATTERN_FILL
  6
CONTINUOUS
 62
     7
 10
163.0320795753731
 20
343.62688887931228
 30
0.0
 40
1.0
 50
218.82096085749779
 51
321.17903914250218
  0
ARC
  5
4A3
  8
PATTERN_FILL
  6
CONTINUOUS
 62
     7
 10
163.0320795753731
 20
340.62688887931228
 30
0.0
 40
1.0
 50
22.441609027617289
 51
172.95104115040689
  0
ARC
  5
4A4
  8
PATTERN_FILL
  6
CONTINUOUS
 62
     7
 10
166.0320795753731
 20
343.62688887931228
 30
0.0
 40
1.0
 50
218.82096085749779
 51
321.17903914250218
  0
ARC
  5
4A5
  8
PATTERN_FILL
  6
CONTINUOUS
 62
     7
 10
166.0320795753731
 20
340.62688887931228
 30
0.0
 40
1.000000000000004
 50
53.811665803282288
 51
145.06645012160689
  0
ARC
  5
4A6
  8
PATTERN_FILL
  6
CONTINUOUS
 62
     7
 10
169.0320795753731
 20
343.62688887931228
 30
0.0
 40
1.0
 50
218.82096085749779
 51
321.17903914250201
  0
ARC
  5
4A7
  8
PATTERN_FILL
  6
CONTINUOUS
 62
     7
 10
200.0
 20
357.81942353654972
 30
0.0
 40
0.9999999999999971
 50
129.31303375973349
 51
146.00925451769189
  0
ARC
  5
4A8
  8
PATTERN_FILL
  6
CONTINUOUS
 62
     7
 10
197.0
 20
357.81942353654972
 30
0.0
 40
1.0
 50
11.75041999110695
 51
50.686966240266379
  0
ARC
  5
4A9
  8
PATTERN_FILL
  6
CONTINUOUS
 62
     7
 10
197.0
 20
357.81942353654972
 30
0.0
 40
0.9999999999999985
 50
129.3130337597336
 51
203.41363500342169
  0
ARC
  5
4AA
  8
PATTERN_FILL
  6
CONTINUOUS
 62
     7
 10
194.0
 20
357.81942353654972
 30
0.0
 40
0.9999999999999868
 50
129.31303375973411
 51
50.686966240265889
  0
ARC
  5
4AB
  8
PATTERN_FILL
  6
CONTINUOUS
 62
     7
 10
191.0
 20
357.81942353654972
 30
0.0
 40
0.9999999999999673
 50
129.3130337597353
 51
50.686966240265043
  0
ARC
  5
4AC
  8
PATTERN_FILL
  6
CONTINUOUS
 62
     7
 10
191.0
 20
354.81942353654961
 30
0.0
 40
1.0000000000000051
 50
67.251364807911486
 51
155.9899747271003
  0
ARC
  5
4AD
  8
PATTERN_FILL
  6
CONTINUOUS
 62
     7
 10
188.0
 20
357.81942353654972
 30
0.0
 40
1.0000000000000071
 50
129.313033759733
 51
50.686966240266869
  0
ARC
  5
4AE
  8
PATTERN_FILL
  6
CONTINUOUS
 62
     7
 10
188.0
 20
354.81942353654961
 30
0.0
 40
0.9999999999999968
 50
357.63528383422232
 51
228.9626563653116
  0
ARC
  5
4AF
  8
PATTERN_FILL
  6
CONTINUOUS
 62
     7
 10
185.0
 20
357.81942353654972
 30
0.0
 40
0.999999999999998
 50
129.31303375973349
 51
50.686966240266422
  0
CIRCLE
  5
4B0
  8
PATTERN_FILL
  6
CONTINUOUS
 62
     7
 10
185.0
 20
354.81942353654961
 30
0.0
 40
1.0
  0
ARC
  5
4B1
  8
PATTERN_FILL
  6
CONTINUOUS
 62
     7
 10
182.0
 20
357.81942353654972
 30
0.0
 40
1.0000000000000071
 50
129.313033759733
 51
50.686966240266869
  0
CIRCLE
  5
4B2
  8
PATTERN_FILL
  6
CONTINUOUS
 62
     7
 10
182.0
 20
354.81942353654961
 30
0.0
 40
1.0
  0
ARC
  5
4B3
  8
PATTERN_FILL
  6
CONTINUOUS
 62
     7
 10
182.0
 20
351.81942353654972
 30
0.0
 40
1.0
 50
10.62242232750233
 51
224.05393605876179
  0
ARC
  5
4B4
  8
PATTERN_FILL
  6
CONTINUOUS
 62
     7
 10
179.0
 20
357.81942353654972
 30
0.0
 40
0.9999999999999879
 50
129.31303375973411
 51
50.686966240265853
  0
CIRCLE
  5
4B5
  8
PATTERN_FILL
  6
CONTINUOUS
 62
     7
 10
179.0
 20
354.81942353654961
 30
0.0
 40
1.0
  0
CIRCLE
  5
4B6
  8
PATTERN_FILL
  6
CONTINUOUS
 62
     7
 10
179.0
 20
351.81942353654972
 30
0.0
 40
1.0
  0
ARC
  5
4B7
  8
PATTERN_FILL
  6
CONTINUOUS
 62
     7
 10
179.0
 20
348.81942353654972
 30
0.0
 40
0.9999999999999948
 50
96.225335273069632
 51
143.38712830035439
  0
ARC
  5
4B8
  8
PATTERN_FILL
  6
CONTINUOUS
 62
     7
 10
176.0
 20
357.81942353654972
 30
0.0
 40
0.9999999999999936
 50
155.6343256994297
 51
45.872180450435721
  0
CIRCLE
  5
4B9
  8
PATTERN_FILL
  6
CONTINUOUS
 62
     7
 10
176.0
 20
354.81942353654961
 30
0.0
 40
1.0
  0
CIRCLE
  5
4BA
  8
PATTERN_FILL
  6
CONTINUOUS
 62
     7
 10
176.0
 20
351.81942353654972
 30
0.0
 40
1.0
  0
ARC
  5
4BB
  8
PATTERN_FILL
  6
CONTINUOUS
 62
     7
 10
176.0
 20
348.81942353654972
 30
0.0
 40
0.99999999999999
 50
353.5862656564525
 51
249.15319500728151
  0
ARC
  5
4BC
  8
PATTERN_FILL
  6
CONTINUOUS
 62
     7
 10
173.0
 20
357.81942353654972
 30
0.0
 40
1.0
 50
215.00173379302561
 51
2.8806728081177941
  0
CIRCLE
  5
4BD
  8
PATTERN_FILL
  6
CONTINUOUS
 62
     7
 10
173.0
 20
354.81942353654961
 30
0.0
 40
1.0
  0
CIRCLE
  5
4BE
  8
PATTERN_FILL
  6
CONTINUOUS
 62
     7
 10
173.0
 20
351.81942353654972
 30
0.0
 40
1.0
  0
CIRCLE
  5
4BF
  8
PATTERN_FILL
  6
CONTINUOUS
 62
     7
 10
173.0
 20
348.81942353654972
 30
0.0
 40
1.0
  0
ARC
  5
4C0
  8
PATTERN_FILL
  6
CONTINUOUS
 62
     7
 10
173.0
 20
345.81942353654972
 30
0.0
 40
1.0000000000000031
 50
51.064522655150462
 51
196.67650183618451
  0
LINE
  5
4C1
  8
PATTERN_FILL
  6
CONTINUOUS
 62
     7
 10
202.0000000000008
 20
355.1047189368764
 30
0.0
 11
202.0000000000008
 21
355.30471893687621
 31
0.0
  0
LINE
  5
4C2
  8
SPEC
  6
CONTINUOUS
 62
     7
 10
35.0
 20
520.0
 30
0.0
 11
330.0
 21
520.0
 31
0.0
  0
LINE
  5
4C3
  8
SPEC
  6
CONTINUOUS
 62
     7
 10
35.0
 20
512.5
 30
0.0
 11
330.0
 21
512.5
 31
0.0
  0
LINE
  5
4C4
  8
SPEC
  6
CONTINUOUS
 62
     7
 10
35.0
 20
482.5
 30
0.0
 11
330.0
 21
482.5
 31
0.0
  0
LINE
  5
4C5
  8
SPEC
  6
CONTINUOUS
 62
     7
 10
35.0
 20
490.0
 30
0.0
 11
330.0
 21
490.0
 31
0.0
  0
LINE
  5
4C6
  8
SPEC
  6
CONTINUOUS
 62
     7
 10
35.0
 20
497.5
 30
0.0
 11
330.0
 21
497.5
 31
0.0
  0
LINE
  5
4C7
  8
SPEC
  6
CONTINUOUS
 62
     7
 10
35.0
 20
505.0
 30
0.0
 11
330.0
 21
505.0
 31
0.0
  0
LINE
  5
4C8
  8
SPEC
  6
CONTINUOUS
 62
     7
 10
35.0
 20
520.0
 30
0.0
 11
35.0
 21
437.5
 31
0.0
  0
TEXT
  5
4C9
  8
SPEC
 62
     7
 10
37.5
 20
522.78653999999995
 30
0.0
 40
4.8865234375000002
  1
仕様
 41
0.7
 11
37.5
 21
527.67306343749999
 31
0.0
 73
     3
  0
LINE
  5
4CA
  8
SPEC
  6
CONTINUOUS
 62
     7
 10
100.0
 20
520.0
 30
0.0
 11
100.0
 21
437.5
 31
0.0
  0
LINE
  5
4CB
  8
SPEC
  6
CONTINUOUS
 62
     7
 10
330.0
 20
520.0
 30
0.0
 11
330.0
 21
437.5
 31
0.0
  0
TEXT
  5
4CC
  8
SPEC
 62
     7
 10
36.625658234069988
 20
514.50565562045915
 30
0.0
 40
3.8006293402777769
  1
形式
 41
0.7
 11
36.625658234069988
 21
518.30628496073678
 31
0.0
 73
     3
  0
TEXT
  5
4CD
  8
SPEC
 62
     7
 10
101.5498119529617
 20
514.44185745688776
 30
0.0
 40
3.8006293402777769
  1
コンデンサー型 
 41
0.7
 11
101.5498119529617
 21
518.24248679716561
 31
0.0
 73
     3
  0
TEXT
  5
4CE
  8
SPEC
 62
     7
 10
36.625658234069988
 20
507.00565562045898
 30
0.0
 40
3.8006293402777769
  1
指向特性
 41
0.7
 11
36.625658234069988
 21
510.80628496073678
 31
0.0
 73
     3
  0
TEXT
  5
4CF
  8
SPEC
 62
     7
 10
101.5498119529617
 20
506.94185745688782
 30
0.0
 40
3.8006293402777769
  1
無指向性
 41
0.7
 11
101.5498119529617
 21
510.74248679716561
 31
0.0
 73
     3
  0
TEXT
  5
4D0
  8
SPEC
 62
     7
 10
36.625658234069988
 20
499.50565562045898
 30
0.0
 40
3.8006293402777769
  1
周波数特性
 41
0.7
 11
36.625658234069988
 21
503.30628496073678
 31
0.0
 73
     3
  0
TEXT
  5
4D1
  8
SPEC
 62
     7
 10
101.5498119529617
 20
499.44185745688782
 30
0.0
 40
3.8006293402777769
  1
50Hz～20kHz
 41
0.7
 11
101.5498119529617
 21
503.24248679716561
 31
0.0
 73
     3
  0
TEXT
  5
4D2
  8
SPEC
 62
     7
 10
36.625658234069988
 20
492.00565562045898
 30
0.0
 40
3.8006293402777769
  1
開回路感度
 41
0.7
 11
36.625658234069988
 21
495.80628496073678
 31
0.0
 73
     3
  0
TEXT
  5
4D3
  8
SPEC
 62
     7
 10
101.5498119529617
 20
491.94185745688782
 30
0.0
 40
3.8006293402777769
  1
-42dB re 1V/Pa
 41
0.7
 11
101.5498119529617
 21
495.7424867971655
 31
0.0
 73
     3
  0
TEXT
  5
4D4
  8
SPEC
 62
     7
 10
36.625658234069988
 20
484.50565562045898
 30
0.0
 40
3.8006293402777769
  1
最大音圧レベル
 41
0.7
 11
36.625658234069988
 21
488.30628496073678
 31
0.0
 73
     3
  0
TEXT
  5
4D5
  8
SPEC
 62
     7
 10
101.5498119529617
 20
484.4418574568877
 30
0.0
 40
3.8006293402777769
  1
120dB SPL(THD1%%%)
 41
0.7
 11
101.5498119529617
 21
488.24248679716561
 31
0.0
 73
     3
  0
TEXT
  5
4D6
  8
SPEC
 62
     7
 10
36.625658234069988
 20
477.00565562045898
 30
0.0
 40
3.8006293402777769
  1
電源
 41
0.7
 11
36.625658234069988
 21
480.80628496073678
 31
0.0
 73
     3
  0
TEXT
  5
4D7
  8
SPEC
 62
     7
 10
101.5498119529617
 20
476.94185745688782
 30
0.0
 40
3.8006293402777769
  1
別売りのSTS DAM+ WL、CBL31 WLSに対応
 41
0.7
 11
101.5498119529617
 21
480.74248679716561
 31
0.0
 73
     3
  0
LINE
  5
4D8
  8
SPEC
  6
CONTINUOUS
 62
     7
 10
35.0
 20
475.0
 30
0.0
 11
330.0
 21
475.0
 31
0.0
  0
TEXT
  5
4D9
  8
SPEC
 62
     7
 10
36.625658234069988
 20
469.50565562045898
 30
0.0
 40
3.8006293402777769
  1
コネクター
 41
0.7
 11
36.625658234069988
 21
473.30628496073678
 31
0.0
 73
     3
  0
TEXT
  5
4DA
  8
SPEC
 62
     7
 10
101.5498119529617
 20
469.44185745688782
 30
0.0
 40
3.8006293402777769
  1
STS DAM+ WL、CBL31 WLS用出力:3.5mmステレオ・ミニプラグ
 41
0.7
 11
101.5498119529617
 21
473.24248679716561
 31
0.0
 73
     3
  0
TEXT
  5
4DB
  8
SPEC
 62
     7
 10
38.774996749729127
 20
428.22199999999992
 30
0.0
 40
3.8006293402777769
  1
※CBL410 PCCを複数台連結していくに従って、CBL410 PCC 1台1台の信号の収音レベルは低下していきます。
 41
0.7
 11
38.774996749729127
 21
432.02262934027772
 31
0.0
 73
     3
  0
LINE
  5
4DC
  8
SPEC
  6
CONTINUOUS
 62
     7
 10
35.0
 20
452.5
 30
0.0
 11
330.0
 21
452.5
 31
0.0
  0
LINE
  5
4DD
  8
SPEC
  6
CONTINUOUS
 62
     7
 10
35.0
 20
460.0
 30
0.0
 11
330.0
 21
460.0
 31
0.0
  0
LINE
  5
4DE
  8
SPEC
  6
CONTINUOUS
 62
     7
 10
35.0
 20
452.5
 30
0.0
 11
330.0
 21
452.5
 31
0.0
  0
LINE
  5
4DF
  8
SPEC
  6
CONTINUOUS
 62
     7
 10
35.0
 20
437.5
 30
0.0
 11
330.0
 21
437.5
 31
0.0
  0
LINE
  5
4E0
  8
SPEC
  6
CONTINUOUS
 62
     7
 10
35.0
 20
445.0
 30
0.0
 11
330.0
 21
445.0
 31
0.0
  0
TEXT
  5
4E1
  8
SPEC
 62
     7
 10
36.628249911485213
 20
439.44706774543891
 30
0.0
 40
3.8006293402777769
  1
質量
 41
0.7
 11
36.628249911485213
 21
443.24769708571671
 31
0.0
 73
     3
  0
TEXT
  5
4E2
  8
SPEC
 62
     7
 10
101.5400121817368
 20
439.6655113096773
 30
0.0
 40
3.8006293402777769
  1
152g
 41
0.7
 11
101.5400121817368
 21
443.46614064995509
 31
0.0
 73
     3
  0
TEXT
  5
4E3
  8
SPEC
 62
     7
 10
36.625658234069988
 20
447.00565562045898
 30
0.0
 40
3.8006293402777769
  1
寸法(W\U+00D7H\U+00D7D)
 41
0.7
 11
36.625658234069988
 21
450.80628496073678
 31
0.0
 73
     3
  0
TEXT
  5
4E4
  8
SPEC
 62
     7
 10
101.5498119529617
 20
446.9418574568877
 30
0.0
 40
3.8006293402777769
  1
115\U+00D724\U+00D7115mm(除突起部)
 41
0.7
 11
101.5498119529617
 21
450.74248679716561
 31
0.0
 73
     3
  0
TEXT
  5
4E5
  8
SPEC
 62
     7
 10
36.628249911485213
 20
454.44706774543891
 30
0.0
 40
3.8006293402777769
  1
ケーブル長
 41
0.7
 11
36.628249911485213
 21
458.24769708571671
 31
0.0
 73
     3
  0
TEXT
  5
4E6
  8
SPEC
 62
     7
 10
101.5400121817368
 20
454.66551130967741
 30
0.0
 40
3.8006293402777769
  1
約1m
 41
0.7
 11
101.5400121817368
 21
458.46614064995509
 31
0.0
 73
     3
  0
TEXT
  5
4E7
  8
SPEC
 62
     7
 10
101.5400121817368
 20
462.1655113096773
 30
0.0
 40
3.8006293402777769
  1
CBL410 PCC用リンク入力:3.5mmステレオ・ミニジャック
 41
0.7
 11
101.5400121817368
 21
465.96614064995509
 31
0.0
 73
     3
  0
TEXT
  5
4E8
  8
DIMNSIONS
 62
     7
 10
159.99999999999989
 20
44.538980000000009
 30
0.0
 40
4.8865234375000002
  1
(単位：mm)
 41
0.7
 11
159.99999999999989
 21
49.425503437500019
 31
0.0
 73
     3
  0
LINE
  5
4E9
  8
DIMNSIONS
  6
CONTINUOUS
 62
     7
 10
137.5
 20
302.5
 30
0.0
 11
137.5
 21
257.5
 31
0.0
  0
LINE
  5
4EA
  8
DIMNSIONS
  6
CONTINUOUS
 62
     7
 10
137.5
 20
257.5
 30
0.0
 11
135.7985226280623
 21
263.85000000000002
 31
0.0
  0
LINE
  5
4EB
  8
DIMNSIONS
  6
CONTINUOUS
 62
     7
 10
137.5
 20
257.5
 30
0.0
 11
139.20147737193761
 21
263.85000000000002
 31
0.0
  0
ARC
  5
4EC
  8
DIMNSIONS
  6
CONTINUOUS
 62
     7
 10
147.5
 20
302.5
 30
0.0
 40
10.0
 50
90.0
 51
180.0
  0
LINE
  5
4ED
  8
DIMNSIONS
  6
CONTINUOUS
 62
     7
 10
146.0
 20
142.50000000000011
 30
0.0
 11
71.0
 21
142.50000000000011
 31
0.0
  0
LINE
  5
4EE
  8
DIMNSIONS
  6
CONTINUOUS
 62
     7
 10
127.0
 20
257.5
 30
0.0
 11
71.0
 21
257.5
 31
0.0
  0
LINE
  5
4EF
  8
DIMNSIONS
  6
CONTINUOUS
 62
     7
 10
75.0
 20
142.50000000000011
 30
0.0
 11
75.0
 21
257.5
 31
0.0
  0
LINE
  5
4F0
  8
DIMNSIONS
  6
CONTINUOUS
 62
     7
 10
75.0
 20
142.50000000000011
 30
0.0
 11
73.659920409699509
 21
147.50124511718761
 31
0.0
  0
LINE
  5
4F1
  8
DIMNSIONS
  6
CONTINUOUS
 62
     7
 10
75.0
 20
142.50000000000011
 30
0.0
 11
76.340079590300505
 21
147.50124511718761
 31
0.0
  0
LINE
  5
4F2
  8
DIMNSIONS
  6
CONTINUOUS
 62
     7
 10
75.0
 20
257.5
 30
0.0
 11
76.340079590300505
 21
252.49875488281251
 31
0.0
  0
LINE
  5
4F3
  8
DIMNSIONS
  6
CONTINUOUS
 62
     7
 10
75.0
 20
257.5
 30
0.0
 11
73.659920409699509
 21
252.49875488281251
 31
0.0
  0
TEXT
  5
4F4
  8
DIMNSIONS
 62
     7
 10
73.012221810089144
 20
194.70833131472281
 30
0.0
 40
5.4294727514631402
  1
115
 50
90.0
 41
0.7
 11
67.582749058626007
 21
194.70833131472281
 31
0.0
 73
     3
  0
LINE
  5
4F5
  8
DIMNSIONS
  6
CONTINUOUS
 62
     7
 10
90.500000000000043
 20
100.0
 30
0.0
 11
69.715390309173571
 21
100.0
 31
0.0
  0
LINE
  5
4F6
  8
DIMNSIONS
  6
CONTINUOUS
 62
     7
 10
145.99999999999949
 20
124.0
 30
0.0
 11
69.715390309173571
 21
124.0
 31
0.0
  0
LINE
  5
4F7
  8
DIMNSIONS
  6
CONTINUOUS
 62
     7
 10
73.715390309173543
 20
100.0
 30
0.0
 11
73.715390309173543
 21
124.0
 31
0.0
  0
LINE
  5
4F8
  8
DIMNSIONS
  6
CONTINUOUS
 62
     7
 10
73.715390309173543
 20
100.0
 30
0.0
 11
72.375310718873067
 21
105.00124511718749
 31
0.0
  0
LINE
  5
4F9
  8
DIMNSIONS
  6
CONTINUOUS
 62
     7
 10
73.715390309173543
 20
100.0
 30
0.0
 11
75.055469899474033
 21
105.00124511718749
 31
0.0
  0
LINE
  5
4FA
  8
DIMNSIONS
  6
CONTINUOUS
 62
     7
 10
73.715390309173543
 20
124.0
 30
0.0
 11
75.055469899474033
 21
118.99875488281251
 31
0.0
  0
LINE
  5
4FB
  8
DIMNSIONS
  6
CONTINUOUS
 62
     7
 10
73.715390309173543
 20
124.0
 30
0.0
 11
72.375310718873067
 21
118.99875488281251
 31
0.0
  0
TEXT
  5
4FC
  8
DIMNSIONS
 62
     7
 10
71.727612119262673
 20
104.9444417529636
 30
0.0
 40
5.4294727514631402
  1
24.0
 50
90.0
 41
0.7
 11
66.298139367799536
 21
104.9444417529636
 31
0.0
 73
     3
  0
LINE
  5
4FD
  8
DIMNSIONS
  6
CONTINUOUS
 62
     7
 10
92.500000000000057
 20
96.5
 30
0.0
 11
92.500000000000057
 21
71.0
 31
0.0
  0
LINE
  5
4FE
  8
DIMNSIONS
  6
CONTINUOUS
 62
     7
 10
207.5
 20
96.5
 30
0.0
 11
207.5
 21
71.0
 31
0.0
  0
LINE
  5
4FF
  8
DIMNSIONS
  6
CONTINUOUS
 62
     7
 10
92.500000000000057
 20
75.0
 30
0.0
 11
207.5
 21
75.0
 31
0.0
  0
LINE
  5
500
  8
DIMNSIONS
  6
CONTINUOUS
 62
     7
 10
92.500000000000057
 20
75.0
 30
0.0
 11
97.501245117187551
 21
76.340079590300505
 31
0.0
  0
LINE
  5
501
  8
DIMNSIONS
  6
CONTINUOUS
 62
     7
 10
92.500000000000057
 20
75.0
 30
0.0
 11
97.501245117187551
 21
73.659920409699509
 31
0.0
  0
LINE
  5
502
  8
DIMNSIONS
  6
CONTINUOUS
 62
     7
 10
207.5
 20
75.0
 30
0.0
 11
202.49875488281239
 21
73.659920409699509
 31
0.0
  0
LINE
  5
503
  8
DIMNSIONS
  6
CONTINUOUS
 62
     7
 10
207.5
 20
75.0
 30
0.0
 11
202.49875488281239
 21
76.340079590300505
 31
0.0
  0
TEXT
  5
504
  8
DIMNSIONS
 62
     7
 10
144.70833097828759
 20
76.987778234068017
 30
0.0
 40
5.4294729941795374
  1
115
 41
0.7
 11
144.70833097828759
 21
82.417251228247551
 31
0.0
 73
     3
  0
LINE
  5
505
  8
DIMNSIONS
  6
CONTINUOUS
 62
     7
 10
323.0
 20
296.7663029971896
 30
0.0
 11
323.0
 21
316.5
 31
0.0
  0
LINE
  5
506
  8
DIMNSIONS
  6
CONTINUOUS
 62
     7
 10
147.5
 20
312.5
 30
0.0
 11
323.0
 21
312.5
 31
0.0
  0
LINE
  5
507
  8
DIMNSIONS
  6
CONTINUOUS
 62
     7
 10
323.0
 20
312.5
 30
0.0
 11
317.99875488281248
 21
311.15992040969951
 31
0.0
  0
LINE
  5
508
  8
DIMNSIONS
  6
CONTINUOUS
 62
     7
 10
323.0
 20
312.5
 30
0.0
 11
317.99875488281248
 21
313.84007959030049
 31
0.0
  0
TEXT
  5
509
  8
DIMNSIONS
 62
     7
 10
222.93055151833431
 20
314.48777824878709
 30
0.0
 40
5.4294730750850011
  1
1140
 41
0.7
 11
222.93055151833431
 21
319.91725132387211
 31
0.0
 73
     3
  0
TEXT
  5
50A
  8
DATA
 62
     7
 10
300.0
 20
42.261780000000023
 30
0.0
 40
4.8865234375000002
  1
CBL410 PCC
 41
0.7
 11
300.0
 21
47.148303437500019
 31
0.0
 73
     3
  0
TEXT
  5
50B
  8
DATA
 62
     7
 10
300.0
 20
56.761780000000023
 30
0.0
 40
4.8865234375000002
  1
AKG
 41
0.7
 11
300.0
 21
61.648303437500019
 31
0.0
 73
     3
  0
ARC
  5
50C
  8
DATA
  6
CONTINUOUS
 62
     7
 10
150.0
 20
200.00000000000011
 30
0.0
 40
57.499999999999929
 50
111.42096194545481
 51
68.579038054545151
  0
ARC
  5
50D
  8
DATA
  6
CONTINUOUS
 62
     7
 10
150.0
 20
200.0000000000004
 30
0.0
 40
52.000000000000483
 50
307.31746415143641
 51
24.38473625955066
  0
ARC
  5
50E
  8
DATA
  6
CONTINUOUS
 62
     7
 10
150.0
 20
200.0000000000004
 30
0.0
 40
52.00000000000049
 50
155.61526374044931
 51
232.6825358485635
  0
ARC
  5
50F
  8
DATA
  6
CONTINUOUS
 62
     7
 10
149.99999999999989
 20
73.620525470401248
 30
0.0
 40
84.879474529598752
 50
76.527519638075418
 51
103.4724803619245
  0
ARC
  5
510
  8
DATA
  6
CONTINUOUS
 62
     7
 10
126.9632281578225
 20
169.7790280915477
 30
0.0
 40
14.000000000000011
 50
232.68253584856359
 51
283.47248036192451
  0
ARC
  5
511
  8
DATA
  6
CONTINUOUS
 62
     7
 10
173.0367718421775
 20
169.7790280915477
 30
0.0
 40
13.999999999999989
 50
256.52751963807549
 51
307.31746415143641
  0
LINE
  5
512
  8
DATA
  6
CONTINUOUS
 62
     7
 10
129.0
 20
255.5
 30
0.0
 11
129.0
 21
245.05709930543529
 31
0.0
  0
LINE
  5
513
  8
DATA
  6
CONTINUOUS
 62
     7
 10
171.0
 20
255.5
 30
0.0
 11
171.0
 21
245.0570993054348
 31
0.0
  0
LINE
  5
514
  8
DATA
  6
CONTINUOUS
 62
     7
 10
131.0
 20
257.5
 30
0.0
 11
169.0
 21
257.5
 31
0.0
  0
ARC
  5
515
  8
DATA
  6
CONTINUOUS
 62
     7
 10
150.0
 20
247.66010396950119
 30
0.0
 40
21.160709659204489
 50
187.06592057981661
 51
352.93407942018212
  0
ARC
  5
516
  8
DATA
  6
CONTINUOUS
 62
     7
 10
150.0
 20
306.74159325622918
 30
0.0
 40
87.241593256229265
 50
246.83474312541861
 51
293.16525687458142
  0
ARC
  5
517
  8
DATA
  6
CONTINUOUS
 62
     7
 10
111.7466654167672
 20
217.340195883072
 30
0.0
 40
9.999999999999984
 50
66.834743125418612
 51
155.61526374044939
  0
ARC
  5
518
  8
DATA
  6
CONTINUOUS
 62
     7
 10
188.2533345832328
 20
217.340195883072
 30
0.0
 40
10.0
 50
24.384736259550639
 51
113.1652568745814
  0
ARC
  5
519
  8
DATA
  6
CONTINUOUS
 62
     7
 10
131.0
 20
255.5
 30
0.0
 40
2.0
 50
90.0
 51
180.0
  0
ARC
  5
51A
  8
DATA
  6
CONTINUOUS
 62
     7
 10
169.0
 20
255.5
 30
0.0
 40
2.0
 50
0.0
 51
90.0
  0
TEXT
  5
51B
  8
DATA
 62
     7
 10
134.3970314186133
 20
248.2461824933832
 30
0.0
 40
4.3435782011705122
  1
CBL 410 PCC
 41
0.7
 11
134.3970314186133
 21
252.58976069455369
 31
0.0
 73
     3
  0
LINE
  5
51C
  8
DATA
  6
CONTINUOUS
 62
     7
 10
94.500000000000043
 20
100.0
 30
0.0
 11
205.5
 21
100.0
 31
0.0
  0
LINE
  5
51D
  8
DATA
  6
CONTINUOUS
 62
     7
 10
92.500000000000057
 20
100.5
 30
0.0
 11
207.5
 21
100.5
 31
0.0
  0
LINE
  5
51E
  8
DATA
  6
CONTINUOUS
 62
     7
 10
94.500000000000043
 20
100.5
 30
0.0
 11
94.500000000000043
 21
100.0
 31
0.0
  0
LINE
  5
51F
  8
DATA
  6
CONTINUOUS
 62
     7
 10
205.5
 20
100.5
 30
0.0
 11
205.5
 21
100.0
 31
0.0
  0
ARC
  5
520
  8
DATA
  6
CONTINUOUS
 62
     7
 10
150.0
 20
26.939189189189332
 30
0.0
 40
97.060810810810693
 50
57.605441407647618
 51
122.3945585923521
  0
LINE
  5
521
  8
DATA
  6
CONTINUOUS
 62
     7
 10
92.500000000000057
 20
100.5
 30
0.0
 11
92.910156329974882
 21
104.60156329974831
 31
0.0
  0
LINE
  5
522
  8
DATA
  6
CONTINUOUS
 62
     7
 10
207.5
 20
100.5
 30
0.0
 11
207.089843670025
 21
104.6015632997496
 31
0.0
  0
ARC
  5
523
  8
DATA
  6
CONTINUOUS
 62
     7
 10
94.900230710398048
 20
104.40255586170601
 30
0.0
 40
2.0000000000031899
 50
137.6405617580111
 51
174.2894068625003
  0
LINE
  5
524
  8
DATA
  6
CONTINUOUS
 62
     7
 10
93.170683859596124
 20
105.40688035652521
 30
0.0
 11
122.24778874601181
 21
105.40688035652521
 31
0.0
  0
LINE
  5
525
  8
DATA
  6
CONTINUOUS
 62
     7
 10
177.75221125398801
 20
105.40688035652521
 30
0.0
 11
206.82931614040419
 21
105.40688035652521
 31
0.0
  0
LINE
  5
526
  8
DATA
  6
CONTINUOUS
 62
     7
 10
97.999999999999545
 20
108.895281063143
 30
0.0
 11
97.999999999999545
 21
108.6952810631431
 31
0.0
  0
LINE
  5
527
  8
DATA
  6
CONTINUOUS
 62
     7
 10
97.999999999999545
 20
108.695281063143
 30
0.0
 11
93.422365673140874
 21
105.750114740444
 31
0.0
  0
LINE
  5
528
  8
DATA
  6
CONTINUOUS
 62
     7
 10
202.0000000000008
 20
108.895281063143
 30
0.0
 11
202.0000000000008
 21
108.6952810631431
 31
0.0
  0
LINE
  5
529
  8
DATA
  6
CONTINUOUS
 62
     7
 10
202.0000000000008
 20
108.695281063143
 30
0.0
 11
206.57763432685951
 21
105.750114740444
 31
0.0
  0
ARC
  5
52A
  8
DATA
  6
CONTINUOUS
 62
     7
 10
150.0
 20
39.16038411045264
 30
0.0
 40
71.1400851570193
 50
69.999498255226172
 51
110.0005017447738
  0
ARC
  5
52B
  8
DATA
  6
CONTINUOUS
 62
     7
 10
122.24778874601181
 20
115.40688035652541
 30
0.0
 40
10.000000000000229
 50
270.0
 51
290.00050174477337
  0
ARC
  5
52C
  8
DATA
  6
CONTINUOUS
 62
     7
 10
177.75221125398801
 20
115.40688035652541
 30
0.0
 40
10.000000000000229
 50
249.9994982552266
 51
270.0
  0
LINE
  5
52D
  8
DATA
  6
CONTINUOUS
 62
     7
 10
94.500000000000043
 20
364.0000000000191
 30
0.0
 11
205.5
 21
364.0000000000191
 31
0.0
  0
LINE
  5
52E
  8
DATA
  6
CONTINUOUS
 62
     7
 10
92.500000000000057
 20
363.50000000001921
 30
0.0
 11
207.5
 21
363.50000000001921
 31
0.0
  0
LINE
  5
52F
  8
DATA
  6
CONTINUOUS
 62
     7
 10
94.500000000000043
 20
363.50000000001921
 30
0.0
 11
94.500000000000043
 21
364.0000000000191
 31
0.0
  0
LINE
  5
530
  8
DATA
  6
CONTINUOUS
 62
     7
 10
205.5
 20
363.50000000001921
 30
0.0
 11
205.5
 21
364.0000000000191
 31
0.0
  0
ARC
  5
531
  8
DATA
  6
CONTINUOUS
 62
     7
 10
150.0
 20
437.06081081083011
 30
0.0
 40
97.060810810810935
 50
237.60544140764799
 51
302.39455859235221
  0
LINE
  5
532
  8
DATA
  6
CONTINUOUS
 62
     7
 10
92.500000000000057
 20
363.50000000001921
 30
0.0
 11
92.910156329974882
 21
359.39843670027079
 31
0.0
  0
LINE
  5
533
  8
DATA
  6
CONTINUOUS
 62
     7
 10
207.5
 20
363.50000000001921
 30
0.0
 11
207.089843670025
 21
359.3984367002696
 31
0.0
  0
ARC
  5
534
  8
DATA
  6
CONTINUOUS
 62
     7
 10
94.900230710398048
 20
359.59744413831322
 30
0.0
 40
2.0000000000031761
 50
185.7105931374997
 51
222.3594382419885
  0
ARC
  5
535
  8
DATA
  6
CONTINUOUS
 62
     7
 10
205.09976928960461
 20
359.59744413831157
 30
0.0
 40
2.0000000000003961
 50
317.64056175799698
 51
354.28940686250053
  0
LINE
  5
536
  8
DATA
  6
CONTINUOUS
 62
     7
 10
93.170683859596124
 20
358.59311964349388
 30
0.0
 11
122.24778874601181
 21
358.59311964349388
 31
0.0
  0
LINE
  5
537
  8
DATA
  6
CONTINUOUS
 62
     7
 10
177.75221125398801
 20
358.59311964349388
 30
0.0
 11
206.82931614040419
 21
358.59311964349388
 31
0.0
  0
LINE
  5
538
  8
DATA
  6
CONTINUOUS
 62
     7
 10
97.999999999999545
 20
355.10471893687611
 30
0.0
 11
97.999999999999545
 21
355.30471893687599
 31
0.0
  0
LINE
  5
539
  8
DATA
  6
CONTINUOUS
 62
     7
 10
97.999999999999545
 20
355.30471893687621
 30
0.0
 11
93.422365673140874
 21
358.24988525957502
 31
0.0
  0
LINE
  5
53A
  8
DATA
  6
CONTINUOUS
 62
     7
 10
202.0000000000008
 20
355.30471893687621
 30
0.0
 11
206.57763432685951
 21
358.24988525957502
 31
0.0
  0
ARC
  5
53B
  8
DATA
  6
CONTINUOUS
 62
     7
 10
150.0
 20
424.8396158895668
 30
0.0
 40
71.140085157019641
 50
249.99949825522631
 51
252.83093564187041
  0
ARC
  5
53C
  8
DATA
  6
CONTINUOUS
 62
     7
 10
150.0
 20
424.8396158895668
 30
0.0
 40
71.140085157019641
 50
287.16906435812962
 51
290.00050174477371
  0
ARC
  5
53D
  8
DATA
  6
CONTINUOUS
 62
     7
 10
122.24778874601181
 20
348.59311964349371
 30
0.0
 40
10.000000000000171
 50
69.999498255226541
 51
90.0
  0
ARC
  5
53E
  8
DATA
  6
CONTINUOUS
 62
     7
 10
177.75221125398801
 20
348.59311964349371
 30
0.0
 40
10.000000000000171
 50
90.0
 51
110.0005017447735
  0
LINE
  5
53F
  8
DATA
  6
CONTINUOUS
 62
     7
 10
129.0
 20
343.0000000000191
 30
0.0
 11
129.0
 21
363.50000000001921
 31
0.0
  0
LINE
  5
540
  8
DATA
  6
CONTINUOUS
 62
     7
 10
171.0
 20
343.0000000000191
 30
0.0
 11
171.0
 21
363.50000000001921
 31
0.0
  0
LINE
  5
541
  8
DATA
  6
CONTINUOUS
 62
     7
 10
129.0
 20
343.0000000000191
 30
0.0
 11
171.0
 21
343.0000000000191
 31
0.0
  0
CIRCLE
  5
542
  8
DATA
  6
CONTINUOUS
 62
     7
 10
144.0
 20
353.25000000001921
 30
0.0
 40
1.5
  0
CIRCLE
  5
543
  8
DATA
  6
CONTINUOUS
 62
     7
 10
144.0
 20
353.25000000001921
 30
0.0
 40
5.0
  0
CIRCLE
  5
544
  8
DATA
  6
CONTINUOUS
 62
     7
 10
158.0
 20
353.25000000001921
 30
0.0
 40
4.5
  0
CIRCLE
  5
545
  8
DATA
  6
CONTINUOUS
 62
     7
 10
158.0
 20
353.25000000001921
 30
0.0
 40
1.0
  0
CIRCLE
  5
546
  8
DATA
  6
CONTINUOUS
 62
     7
 10
158.0
 20
353.25000000001921
 30
0.0
 40
2.3999999999999981
  0
LINE
  5
547
  8
DATA
  6
CONTINUOUS
 62
     7
 10
153.5
 20
257.5
 30
0.0
 11
155.69999999999999
 21
262.0
 31
0.0
  0
LINE
  5
548
  8
DATA
  6
CONTINUOUS
 62
     7
 10
162.5
 20
257.5
 30
0.0
 11
160.30000000000001
 21
262.0
 31
0.0
  0
LINE
  5
549
  8
DATA
  6
CONTINUOUS
 62
     7
 10
155.69999999999999
 20
262.0
 30
0.0
 11
155.69999999999999
 21
262.5
 31
0.0
  0
LINE
  5
54A
  8
DATA
  6
CONTINUOUS
 62
     7
 10
155.69999999999999
 20
263.5
 30
0.0
 11
155.69999999999999
 21
266.0
 31
0.0
  0
LINE
  5
54B
  8
DATA
  6
CONTINUOUS
 62
     7
 10
155.69999999999999
 20
267.0
 30
0.0
 11
155.69999999999999
 21
269.5
 31
0.0
  0
LINE
  5
54C
  8
DATA
  6
CONTINUOUS
 62
     7
 10
160.30000000000001
 20
262.0
 30
0.0
 11
160.30000000000001
 21
262.5
 31
0.0
  0
LINE
  5
54D
  8
DATA
  6
CONTINUOUS
 62
     7
 10
160.30000000000001
 20
263.5
 30
0.0
 11
160.30000000000001
 21
266.0
 31
0.0
  0
LINE
  5
54E
  8
DATA
  6
CONTINUOUS
 62
     7
 10
160.30000000000001
 20
267.0
 30
0.0
 11
160.30000000000001
 21
269.5
 31
0.0
  0
LINE
  5
54F
  8
DATA
  6
CONTINUOUS
 62
     7
 10
159.0
 20
278.0
 30
0.0
 11
159.0
 21
269.5
 31
0.0
  0
LINE
  5
550
  8
DATA
  6
CONTINUOUS
 62
     7
 10
157.0
 20
269.5
 30
0.0
 11
157.0
 21
280.0
 31
0.0
  0
LINE
  5
551
  8
DATA
  6
CONTINUOUS
 62
     7
 10
155.69999999999999
 20
269.5
 30
0.0
 11
160.30000000000001
 21
269.5
 31
0.0
  0
LINE
  5
552
  8
DATA
  6
CONTINUOUS
 62
     7
 10
167.0
 20
290.0
 30
0.0
 11
210.0
 21
290.0
 31
0.0
  0
LINE
  5
553
  8
DATA
  6
CONTINUOUS
 62
     7
 10
233.50171895418319
 20
290.0
 30
0.0
 11
290.0
 21
290.0
 31
0.0
  0
LINE
  5
554
  8
DATA
  6
CONTINUOUS
 62
     7
 10
169.0
 20
288.0
 30
0.0
 11
210.0
 21
288.0
 31
0.0
  0
LINE
  5
555
  8
DATA
  6
CONTINUOUS
 62
     7
 10
233.50171895418319
 20
288.0
 30
0.0
 11
290.0
 21
288.0
 31
0.0
  0
ARC
  5
556
  8
DATA
  6
CONTINUOUS
 62
     7
 10
169.0
 20
278.0
 30
0.0
 40
10.0
 50
90.0
 51
180.0
  0
ARC
  5
557
  8
DATA
  6
CONTINUOUS
 62
     7
 10
167.0
 20
280.0
 30
0.0
 40
10.0
 50
90.0
 51
180.0
  0
LINE
  5
558
  8
DATA
  6
CONTINUOUS
 62
     7
 10
323.0
 20
292.7663029971896
 30
0.0
 11
323.0
 21
285.23369700281029
 31
0.0
  0
LINE
  5
559
  8
DATA
  6
CONTINUOUS
 62
     7
 10
337.0
 20
289.5
 30
0.0
 11
337.0
 21
288.5
 31
0.0
  0
LINE
  5
55A
  8
DATA
  6
CONTINUOUS
 62
     7
 10
323.7999999999999
 20
290.75
 30
0.0
 11
332.7999999999999
 21
290.75
 31
0.0
  0
LINE
  5
55B
  8
DATA
  6
CONTINUOUS
 62
     7
 10
332.7999999999999
 20
287.25
 30
0.0
 11
323.80000000000001
 21
287.25
 31
0.0
  0
LINE
  5
55C
  8
DATA
  6
CONTINUOUS
 62
     7
 10
300.0
 20
293.0
 30
0.0
 11
300.0
 21
285.0
 31
0.0
  0
LINE
  5
55D
  8
DATA
  6
CONTINUOUS
 62
     7
 10
313.0
 20
293.0
 30
0.0
 11
300.0
 21
293.0
 31
0.0
  0
LINE
  5
55E
  8
DATA
  6
CONTINUOUS
 62
     7
 10
313.0
 20
285.0
 30
0.0
 11
300.0
 21
285.0
 31
0.0
  0
LINE
  5
55F
  8
DATA
  6
CONTINUOUS
 62
     7
 10
323.80000000000001
 20
286.05000000000001
 30
0.0
 11
323.0
 21
286.05000000000001
 31
0.0
  0
LINE
  5
560
  8
DATA
  6
CONTINUOUS
 62
     7
 10
323.0
 20
291.94999999999999
 30
0.0
 11
323.7999999999999
 21
291.94999999999999
 31
0.0
  0
LINE
  5
561
  8
DATA
  6
CONTINUOUS
 62
     7
 10
323.80000000000001
 20
286.05000000000001
 30
0.0
 11
323.80000000000001
 21
291.94999999999999
 31
0.0
  0
LINE
  5
562
  8
DATA
  6
CONTINUOUS
 62
     7
 10
329.2999999999999
 20
287.25
 30
0.0
 11
329.2999999999999
 21
290.75
 31
0.0
  0
LINE
  5
563
  8
DATA
  6
CONTINUOUS
 62
     7
 10
329.7999999999999
 20
287.25
 30
0.0
 11
329.7999999999999
 21
290.75
 31
0.0
  0
LINE
  5
564
  8
DATA
  6
CONTINUOUS
 62
     7
 10
332.2999999999999
 20
287.25
 30
0.0
 11
332.2999999999999
 21
290.75
 31
0.0
  0
LINE
  5
565
  8
DATA
  6
CONTINUOUS
 62
     7
 10
332.7999999999999
 20
287.25
 30
0.0
 11
332.7999999999999
 21
290.75
 31
0.0
  0
LINE
  5
566
  8
DATA
  6
CONTINUOUS
 62
     7
 10
337.0
 20
289.5
 30
0.0
 11
336.0
 21
290.75
 31
0.0
  0
LINE
  5
567
  8
DATA
  6
CONTINUOUS
 62
     7
 10
337.0
 20
288.5
 30
0.0
 11
336.0
 21
287.25
 31
0.0
  0
LINE
  5
568
  8
DATA
  6
CONTINUOUS
 62
     7
 10
336.0
 20
290.75
 30
0.0
 11
333.0862862511168
 21
290.38578578138959
 31
0.0
  0
LINE
  5
569
  8
DATA
  6
CONTINUOUS
 62
     7
 10
333.0862862511168
 20
290.38578578138959
 30
0.0
 11
332.7999999999999
 21
290.55107322553732
 31
0.0
  0
LINE
  5
56A
  8
DATA
  6
CONTINUOUS
 62
     7
 10
336.0
 20
287.25
 30
0.0
 11
333.0862862511168
 21
287.61421421861041
 31
0.0
  0
LINE
  5
56B
  8
DATA
  6
CONTINUOUS
 62
     7
 10
333.0862862511168
 20
287.61421421861041
 30
0.0
 11
332.7999999999999
 21
287.44892677446268
 31
0.0
  0
LINE
  5
56C
  8
DATA
  6
CONTINUOUS
 62
     7
 10
290.0
 20
291.80000000000001
 30
0.0
 11
300.0
 21
293.0
 31
0.0
  0
LINE
  5
56D
  8
DATA
  6
CONTINUOUS
 62
     7
 10
300.0
 20
285.0
 30
0.0
 11
290.0
 21
286.19999999999999
 31
0.0
  0
LINE
  5
56E
  8
DATA
  6
CONTINUOUS
 62
     7
 10
290.0
 20
286.19999999999999
 30
0.0
 11
290.0
 21
291.80000000000001
 31
0.0
  0
LINE
  5
56F
  8
DATA
  6
CONTINUOUS
 62
     7
 10
313.0
 20
293.0
 30
0.0
 11
313.0
 21
285.0
 31
0.0
  0
LINE
  5
570
  8
DATA
  6
CONTINUOUS
 62
     7
 10
312.19999999999999
 20
293.0
 30
0.0
 11
312.19999999999999
 21
285.0
 31
0.0
  0
LINE
  5
571
  8
DATA
  6
CONTINUOUS
 62
     7
 10
311.39999999999998
 20
293.0
 30
0.0
 11
311.39999999999998
 21
285.0
 31
0.0
  0
LINE
  5
572
  8
DATA
  6
CONTINUOUS
 62
     7
 10
310.60000000000002
 20
293.0
 30
0.0
 11
310.60000000000002
 21
285.0
 31
0.0
  0
LINE
  5
573
  8
DATA
  6
CONTINUOUS
 62
     7
 10
309.80000000000001
 20
293.0
 30
0.0
 11
309.80000000000001
 21
285.0
 31
0.0
  0
LINE
  5
574
  8
DATA
  6
CONTINUOUS
 62
     7
 10
309.0
 20
293.0
 30
0.0
 11
309.0
 21
285.0
 31
0.0
  0
LINE
  5
575
  8
DATA
  6
CONTINUOUS
 62
     7
 10
308.19999999999999
 20
293.0
 30
0.0
 11
308.19999999999999
 21
285.0
 31
0.0
  0
LINE
  5
576
  8
DATA
  6
CONTINUOUS
 62
     7
 10
307.39999999999998
 20
293.0
 30
0.0
 11
307.39999999999998
 21
285.0
 31
0.0
  0
LINE
  5
577
  8
DATA
  6
CONTINUOUS
 62
     7
 10
306.60000000000002
 20
293.0
 30
0.0
 11
306.60000000000002
 21
285.0
 31
0.0
  0
LINE
  5
578
  8
DATA
  6
CONTINUOUS
 62
     7
 10
305.80000000000001
 20
293.0
 30
0.0
 11
305.80000000000001
 21
285.0
 31
0.0
  0
LINE
  5
579
  8
DATA
  6
CONTINUOUS
 62
     7
 10
305.0
 20
293.0
 30
0.0
 11
305.0
 21
285.0
 31
0.0
  0
LINE
  5
57A
  8
DATA
  6
CONTINUOUS
 62
     7
 10
323.0
 20
292.7663029971896
 30
0.0
 11
313.0
 21
292.7663029971896
 31
0.0
  0
LINE
  5
57B
  8
DATA
  6
CONTINUOUS
 62
     7
 10
323.0
 20
285.23369700281029
 30
0.0
 11
313.0
 21
285.23369700281029
 31
0.0
  0
LINE
  5
57C
  8
DATA
  6
CONTINUOUS
 62
     7
 10
250.0
 20
255.50000000000071
 30
0.0
 11
250.0
 21
144.5000000000008
 31
0.0
  0
LINE
  5
57D
  8
DATA
  6
CONTINUOUS
 62
     7
 10
250.5
 20
257.50000000000068
 30
0.0
 11
250.5
 21
142.5000000000008
 31
0.0
  0
LINE
  5
57E
  8
DATA
  6
CONTINUOUS
 62
     7
 10
250.5
 20
255.50000000000071
 30
0.0
 11
250.0
 21
255.50000000000071
 31
0.0
  0
LINE
  5
57F
  8
DATA
  6
CONTINUOUS
 62
     7
 10
250.5
 20
144.5000000000008
 30
0.0
 11
250.0
 21
144.5000000000008
 31
0.0
  0
ARC
  5
580
  8
DATA
  6
CONTINUOUS
 62
     7
 10
176.93918918918931
 20
200.0000000000008
 30
0.0
 40
97.060810810810693
 50
327.60544140764762
 51
35.42376858409478
  0
LINE
  5
581
  8
DATA
  6
CONTINUOUS
 62
     7
 10
250.5
 20
142.5000000000008
 30
0.0
 11
254.60156329974961
 21
142.91015632997571
 31
0.0
  0
ARC
  5
582
  8
DATA
  6
CONTINUOUS
 62
     7
 10
254.40255586170761
 20
144.90023071039619
 30
0.0
 40
2.0000000000004459
 50
275.71059313749942
 51
312.35943824200308
  0
LINE
  5
583
  8
DATA
  6
CONTINUOUS
 62
     7
 10
258.89528106314299
 20
147.99999999999989
 30
0.0
 11
258.69528106314311
 21
147.99999999999989
 31
0.0
  0
LINE
  5
584
  8
DATA
  6
CONTINUOUS
 62
     7
 10
258.69528106314311
 20
147.99999999999989
 30
0.0
 11
255.75011474044399
 21
143.42236567314129
 31
0.0
  0
LINE
  5
585
  8
DATA
  6
CONTINUOUS
 62
     7
 10
250.5
 20
257.5
 30
0.0
 11
271.0
 21
257.5
 31
0.0
  0
LINE
  5
586
  8
DATA
  6
CONTINUOUS
 62
     7
 10
271.0
 20
257.5
 30
0.0
 11
271.0
 21
223.94503841853049
 31
0.0
  0
LINE
  5
587
  8
DATA
  6
CONTINUOUS
 62
     7
 10
255.2171456025311
 20
143.07363728159299
 30
0.0
 11
255.2171456025311
 21
257.5
 31
0.0
  0
ARC
  5
588
  8
DATA
  6
CONTINUOUS
 62
     7
 10
218.27018220334759
 20
286.69059892324151
 30
0.0
 40
4.618802153516997
 50
30.000000000000089
 51
149.9999999999998
  0
ARC
  5
589
  8
DATA
  6
CONTINUOUS
 62
     7
 10
226.27018220334759
 20
291.30940107675849
 30
0.0
 40
4.6188021535170067
 50
210.00000000000011
 51
330.00000000000011
  0
LINE
  5
58A
  8
DATA
  6
CONTINUOUS
 62
     7
 10
155.69999999999999
 20
267.0
 30
0.0
 11
160.30000000000001
 21
267.0
 31
0.0
  0
LINE
  5
58B
  8
DATA
  6
CONTINUOUS
 62
     7
 10
155.69999999999999
 20
266.0
 30
0.0
 11
160.30000000000001
 21
266.0
 31
0.0
  0
LINE
  5
58C
  8
DATA
  6
CONTINUOUS
 62
     7
 10
155.69999999999999
 20
263.5
 30
0.0
 11
160.30000000000001
 21
263.5
 31
0.0
  0
LINE
  5
58D
  8
DATA
  6
CONTINUOUS
 62
     7
 10
155.69999999999999
 20
262.5
 30
0.0
 11
160.30000000000001
 21
262.5
 31
0.0
  0
LINE
  5
58E
  8
DATA
  6
CONTINUOUS
 62
     7
 10
157.0
 20
266.0
 30
0.0
 11
157.0
 21
267.0
 31
0.0
  0
LINE
  5
58F
  8
DATA
  6
CONTINUOUS
 62
     7
 10
159.0
 20
266.0
 30
0.0
 11
159.0
 21
267.0
 31
0.0
  0
LINE
  5
590
  8
DATA
  6
CONTINUOUS
 62
     7
 10
157.0
 20
262.5
 30
0.0
 11
157.0
 21
263.5
 31
0.0
  0
LINE
  5
591
  8
DATA
  6
CONTINUOUS
 62
     7
 10
159.0
 20
262.5
 30
0.0
 11
159.0
 21
263.5
 31
0.0
  0
LINE
  5
592
  8
DATA
  6
CONTINUOUS
 62
     7
 10
256.26229862744862
 20
257.5
 30
0.0
 11
258.4622986274486
 21
262.0
 31
0.0
  0
LINE
  5
593
  8
DATA
  6
CONTINUOUS
 62
     7
 10
265.26229862744879
 20
257.5
 30
0.0
 11
263.0622986274484
 21
262.0
 31
0.0
  0
LINE
  5
594
  8
DATA
  6
CONTINUOUS
 62
     7
 10
258.4622986274486
 20
262.0
 30
0.0
 11
258.4622986274486
 21
262.5
 31
0.0
  0
LINE
  5
595
  8
DATA
  6
CONTINUOUS
 62
     7
 10
258.4622986274486
 20
263.5
 30
0.0
 11
258.4622986274486
 21
266.0
 31
0.0
  0
LINE
  5
596
  8
DATA
  6
CONTINUOUS
 62
     7
 10
258.4622986274486
 20
267.0
 30
0.0
 11
258.4622986274486
 21
269.5
 31
0.0
  0
LINE
  5
597
  8
DATA
  6
CONTINUOUS
 62
     7
 10
263.0622986274484
 20
262.0
 30
0.0
 11
263.0622986274484
 21
262.5
 31
0.0
  0
LINE
  5
598
  8
DATA
  6
CONTINUOUS
 62
     7
 10
263.0622986274484
 20
263.5
 30
0.0
 11
263.0622986274484
 21
266.0
 31
0.0
  0
LINE
  5
599
  8
DATA
  6
CONTINUOUS
 62
     7
 10
263.0622986274484
 20
267.0
 30
0.0
 11
263.0622986274484
 21
269.5
 31
0.0
  0
LINE
  5
59A
  8
DATA
  6
CONTINUOUS
 62
     7
 10
258.4622986274486
 20
269.5
 30
0.0
 11
263.0622986274484
 21
269.5
 31
0.0
  0
LINE
  5
59B
  8
DATA
  6
CONTINUOUS
 62
     7
 10
258.4622986274486
 20
267.0
 30
0.0
 11
263.0622986274484
 21
267.0
 31
0.0
  0
LINE
  5
59C
  8
DATA
  6
CONTINUOUS
 62
     7
 10
258.4622986274486
 20
266.0
 30
0.0
 11
263.0622986274484
 21
266.0
 31
0.0
  0
LINE
  5
59D
  8
DATA
  6
CONTINUOUS
 62
     7
 10
258.4622986274486
 20
263.5
 30
0.0
 11
263.0622986274484
 21
263.5
 31
0.0
  0
LINE
  5
59E
  8
DATA
  6
CONTINUOUS
 62
     7
 10
258.4622986274486
 20
262.5
 30
0.0
 11
263.0622986274484
 21
262.5
 31
0.0
  0
LINE
  5
59F
  8
DATA
  6
CONTINUOUS
 62
     7
 10
259.7622986274485
 20
266.0
 30
0.0
 11
259.7622986274485
 21
267.0
 31
0.0
  0
LINE
  5
5A0
  8
DATA
  6
CONTINUOUS
 62
     7
 10
261.7622986274485
 20
266.0
 30
0.0
 11
261.7622986274485
 21
267.0
 31
0.0
  0
LINE
  5
5A1
  8
DATA
  6
CONTINUOUS
 62
     7
 10
259.7622986274485
 20
262.5
 30
0.0
 11
259.7622986274485
 21
263.5
 31
0.0
  0
LINE
  5
5A2
  8
DATA
  6
CONTINUOUS
 62
     7
 10
261.7622986274485
 20
262.5
 30
0.0
 11
261.7622986274485
 21
263.5
 31
0.0
  0
LINE
  5
5A3
  8
DATA
  6
CONTINUOUS
 62
     7
 10
259.7622986274485
 20
269.5
 30
0.0
 11
259.7622986274485
 21
276.93866550149733
 31
0.0
  0
LINE
  5
5A4
  8
DATA
  6
CONTINUOUS
 62
     7
 10
261.7622986274485
 20
276.93866550149733
 30
0.0
 11
261.7622986274485
 21
269.5
 31
0.0
  0
ARC
  5
5A5
  8
DATA
  6
CONTINUOUS
 62
     7
 10
260.26229862744862
 20
277.17784943997282
 30
0.0
 40
0.5542643380415404
 50
205.5649547130152
 51
334.43504528698492
  0
ARC
  5
5A6
  8
DATA
  6
CONTINUOUS
 62
     7
 10
261.26229862744862
 20
276.69948156302189
 30
0.0
 40
0.5542643380415404
 50
25.564954713015169
 51
154.43504528698489
  0
ARC
  5
5A7
  8
DATA
  6
CONTINUOUS
 62
     7
 10
205.09976928960199
 20
104.40255586170601
 30
0.0
 40
2.0000000000031761
 50
5.710593137499683
 51
42.359438241988897
  0
TEXT
  5
5A8
  8
DATA
 62
     7
 10
24.999999999999972
 20
35.752555555555567
 30
0.0
 40
3.8006293402777769
  1
※仕様及び外観は予告なく変更されることがあります。
 41
0.7
 11
24.999999999999972
 21
39.553184895833347
 31
0.0
 73
     3
  0
TEXT
  5
5A9
  8
DATA
 62
     7
 10
24.999999999999972
 20
30.813666666666681
 30
0.0
 40
3.8006293402777769
  1
　また、同一商品でも若干の個体差があることがあります。ご了承ください。
 41
0.7
 11
24.999999999999972
 21
34.61429600694445
 31
0.0
 73
     3
  0
TEXT
  5
5AA
  8
DATA
 62
     7
 10
294.99999999999989
 20
49.807867599999973
 30
0.0
 40
3.257687421875
  1
バウンダリー・マイクロホン
 41
0.7
 11
294.99999999999989
 21
53.065555021874957
 31
0.0
 73
     3
  0
ENDSEC
  0
EOF
